ISO-10303-21;
HEADER;
FILE_DESCRIPTION((''),'1');
FILE_NAME(' ','  ',(''),(''),'ACIS Interop R17','Kubotek KeyCreator V7.0.2 (6668)',' ');
FILE_SCHEMA(('CONFIG_CONTROL_DESIGN'));
ENDSEC;
DATA;
#1=DESIGN_CONTEXT('',#71,'design');
#2=APPLICATION_PROTOCOL_DEFINITION('INTERNATIONAL STANDARD','config_control_design',1994,#71);
#3=PRODUCT_CATEGORY_RELATIONSHIP('NONE','NONE',#72,#73);
#4=DATE_AND_TIME(#74,#75);
#5=DATE_TIME_ROLE('creation_date');
#6=DATE_TIME_ROLE('classification_date');
#7=PERSON_AND_ORGANIZATION_ROLE('creator');
#8=PERSON_AND_ORGANIZATION_ROLE('design_supplier');
#9=PERSON_AND_ORGANIZATION_ROLE('classification_officer');
#10=PERSON_AND_ORGANIZATION_ROLE('design_owner');
#11=APPROVAL_PERSON_ORGANIZATION(#76,#77,#78);
#12=APPROVAL_DATE_TIME(#4,#77);
#13=CC_DESIGN_APPROVAL(#77,(#79,#80,#81));
#14=CC_DESIGN_DATE_AND_TIME_ASSIGNMENT(#4,#5,(#81));
#15=CC_DESIGN_DATE_AND_TIME_ASSIGNMENT(#4,#6,(#79));
#16=CC_DESIGN_PERSON_AND_ORGANIZATION_ASSIGNMENT(#76,#10,(#82));
#17=CC_DESIGN_PERSON_AND_ORGANIZATION_ASSIGNMENT(#76,#7,(#81));
#18=CC_DESIGN_PERSON_AND_ORGANIZATION_ASSIGNMENT(#76,#7,(#80));
#19=CC_DESIGN_PERSON_AND_ORGANIZATION_ASSIGNMENT(#76,#8,(#80));
#20=CC_DESIGN_SECURITY_CLASSIFICATION(#79,(#80));
#21=CC_DESIGN_PERSON_AND_ORGANIZATION_ASSIGNMENT(#76,#9,(#79));
#22=SHAPE_DEFINITION_REPRESENTATION(#83,#84);
#23=DESIGN_CONTEXT('',#85,'design');
#24=APPLICATION_PROTOCOL_DEFINITION('INTERNATIONAL STANDARD','config_control_design',1994,#85);
#25=PRODUCT_CATEGORY_RELATIONSHIP('NONE','NONE',#86,#87);
#26=DATE_AND_TIME(#88,#89);
#27=DATE_TIME_ROLE('creation_date');
#28=DATE_TIME_ROLE('classification_date');
#29=PERSON_AND_ORGANIZATION_ROLE('creator');
#30=PERSON_AND_ORGANIZATION_ROLE('design_supplier');
#31=PERSON_AND_ORGANIZATION_ROLE('classification_officer');
#32=PERSON_AND_ORGANIZATION_ROLE('design_owner');
#33=APPROVAL_PERSON_ORGANIZATION(#90,#91,#92);
#34=APPROVAL_DATE_TIME(#26,#91);
#35=CC_DESIGN_APPROVAL(#91,(#93,#94,#95));
#36=CC_DESIGN_DATE_AND_TIME_ASSIGNMENT(#26,#27,(#95));
#37=CC_DESIGN_DATE_AND_TIME_ASSIGNMENT(#26,#28,(#93));
#38=CC_DESIGN_PERSON_AND_ORGANIZATION_ASSIGNMENT(#90,#32,(#96));
#39=CC_DESIGN_PERSON_AND_ORGANIZATION_ASSIGNMENT(#90,#29,(#95));
#40=CC_DESIGN_PERSON_AND_ORGANIZATION_ASSIGNMENT(#90,#29,(#94));
#41=CC_DESIGN_PERSON_AND_ORGANIZATION_ASSIGNMENT(#90,#30,(#94));
#42=CC_DESIGN_SECURITY_CLASSIFICATION(#93,(#94));
#43=CC_DESIGN_PERSON_AND_ORGANIZATION_ASSIGNMENT(#90,#31,(#93));
#44=SHAPE_DEFINITION_REPRESENTATION(#97,#98);
#45=DESIGN_CONTEXT('',#99,'design');
#46=APPLICATION_PROTOCOL_DEFINITION('INTERNATIONAL STANDARD','config_control_design',1994,#99);
#47=PRODUCT_CATEGORY_RELATIONSHIP('NONE','NONE',#100,#101);
#48=DATE_AND_TIME(#102,#103);
#49=DATE_TIME_ROLE('creation_date');
#50=DATE_TIME_ROLE('classification_date');
#51=PERSON_AND_ORGANIZATION_ROLE('creator');
#52=PERSON_AND_ORGANIZATION_ROLE('design_supplier');
#53=PERSON_AND_ORGANIZATION_ROLE('classification_officer');
#54=PERSON_AND_ORGANIZATION_ROLE('design_owner');
#55=APPROVAL_PERSON_ORGANIZATION(#104,#105,#106);
#56=APPROVAL_DATE_TIME(#48,#105);
#57=CC_DESIGN_APPROVAL(#105,(#107,#108,#109));
#58=CC_DESIGN_DATE_AND_TIME_ASSIGNMENT(#48,#49,(#109));
#59=CC_DESIGN_DATE_AND_TIME_ASSIGNMENT(#48,#50,(#107));
#60=CC_DESIGN_PERSON_AND_ORGANIZATION_ASSIGNMENT(#104,#54,(#110));
#61=CC_DESIGN_PERSON_AND_ORGANIZATION_ASSIGNMENT(#104,#51,(#109));
#62=CC_DESIGN_PERSON_AND_ORGANIZATION_ASSIGNMENT(#104,#51,(#108));
#63=CC_DESIGN_PERSON_AND_ORGANIZATION_ASSIGNMENT(#104,#52,(#108));
#64=CC_DESIGN_SECURITY_CLASSIFICATION(#107,(#108));
#65=CC_DESIGN_PERSON_AND_ORGANIZATION_ASSIGNMENT(#104,#53,(#107));
#66=SHAPE_DEFINITION_REPRESENTATION(#111,#112);
#67= (GEOMETRIC_REPRESENTATION_CONTEXT(3)GLOBAL_UNCERTAINTY_ASSIGNED_CONTEXT((#115))GLOBAL_UNIT_ASSIGNED_CONTEXT((#117,#118,#119))REPRESENTATION_CONTEXT('NONE','WORKSPACE'));
#71=APPLICATION_CONTEXT('CONFIGURATION CONTROLLED 3D DESIGNS OF MECHANICAL PARTS AND ASSEMBLIES');
#72=PRODUCT_CATEGORY('part','NONE');
#73=PRODUCT_RELATED_PRODUCT_CATEGORY('detail',' ',(#82));
#74=CALENDAR_DATE(2010,11,5);
#75=LOCAL_TIME(12,56,54.0,#121);
#76=PERSON_AND_ORGANIZATION(#122,#123);
#77=APPROVAL(#124,'SOLID MODEL');
#78=APPROVAL_ROLE('APPROVED');
#79=SECURITY_CLASSIFICATION('','',#125);
#80=PRODUCT_DEFINITION_FORMATION_WITH_SPECIFIED_SOURCE(' ','NONE',#82,.NOT_KNOWN.);
#81=PRODUCT_DEFINITION('NONE','NONE',#80,#1);
#82=PRODUCT('','','PART--DESC',(#126));
#83=PRODUCT_DEFINITION_SHAPE('NONE','NONE',#81);
#84=ADVANCED_BREP_SHAPE_REPRESENTATION('',(#127,#128),#67);
#85=APPLICATION_CONTEXT('CONFIGURATION CONTROLLED 3D DESIGNS OF MECHANICAL PARTS AND ASSEMBLIES');
#86=PRODUCT_CATEGORY('part','NONE');
#87=PRODUCT_RELATED_PRODUCT_CATEGORY('detail',' ',(#96));
#88=CALENDAR_DATE(2010,11,5);
#89=LOCAL_TIME(12,56,54.0,#129);
#90=PERSON_AND_ORGANIZATION(#130,#131);
#91=APPROVAL(#132,'SOLID MODEL');
#92=APPROVAL_ROLE('APPROVED');
#93=SECURITY_CLASSIFICATION('','',#133);
#94=PRODUCT_DEFINITION_FORMATION_WITH_SPECIFIED_SOURCE(' ','NONE',#96,.NOT_KNOWN.);
#95=PRODUCT_DEFINITION('NONE','NONE',#94,#23);
#96=PRODUCT('','','PART--DESC',(#134));
#97=PRODUCT_DEFINITION_SHAPE('NONE','NONE',#95);
#98=ADVANCED_BREP_SHAPE_REPRESENTATION('',(#135,#136),#67);
#99=APPLICATION_CONTEXT('CONFIGURATION CONTROLLED 3D DESIGNS OF MECHANICAL PARTS AND ASSEMBLIES');
#100=PRODUCT_CATEGORY('part','NONE');
#101=PRODUCT_RELATED_PRODUCT_CATEGORY('detail',' ',(#110));
#102=CALENDAR_DATE(2010,11,5);
#103=LOCAL_TIME(12,56,54.0,#137);
#104=PERSON_AND_ORGANIZATION(#138,#139);
#105=APPROVAL(#140,'SOLID MODEL');
#106=APPROVAL_ROLE('APPROVED');
#107=SECURITY_CLASSIFICATION('','',#141);
#108=PRODUCT_DEFINITION_FORMATION_WITH_SPECIFIED_SOURCE(' ','NONE',#110,.NOT_KNOWN.);
#109=PRODUCT_DEFINITION('NONE','NONE',#108,#45);
#110=PRODUCT('','','PART--DESC',(#142));
#111=PRODUCT_DEFINITION_SHAPE('NONE','NONE',#109);
#112=ADVANCED_BREP_SHAPE_REPRESENTATION('',(#143,#144),#67);
#115=UNCERTAINTY_MEASURE_WITH_UNIT(LENGTH_MEASURE(1.0E-006),#117,'','');
#117= (CONVERSION_BASED_UNIT('MILLIMETRE',#147)LENGTH_UNIT()NAMED_UNIT(#150));
#118= (NAMED_UNIT(#152)PLANE_ANGLE_UNIT()SI_UNIT($,.RADIAN.));
#119= (NAMED_UNIT(#152)SOLID_ANGLE_UNIT()SI_UNIT($,.STERADIAN.));
#121=COORDINATED_UNIVERSAL_TIME_OFFSET(1,0,.AHEAD.);
#122=PERSON('','UNSPECIFIED',$,$,$,$);
#123=ORGANIZATION('UNSPECIFIED','UNSPECIFIED','UNSPECIFIED');
#124=APPROVAL_STATUS('approved');
#125=SECURITY_CLASSIFICATION_LEVEL('unclassified');
#126=MECHANICAL_CONTEXT('',#71,'mechanical');
#127=MANIFOLD_SOLID_BREP('1',#158);
#128=AXIS2_PLACEMENT_3D('',#159,#160,#161);
#129=COORDINATED_UNIVERSAL_TIME_OFFSET(1,0,.AHEAD.);
#130=PERSON('','UNSPECIFIED',$,$,$,$);
#131=ORGANIZATION('UNSPECIFIED','UNSPECIFIED','UNSPECIFIED');
#132=APPROVAL_STATUS('approved');
#133=SECURITY_CLASSIFICATION_LEVEL('unclassified');
#134=MECHANICAL_CONTEXT('',#85,'mechanical');
#135=MANIFOLD_SOLID_BREP('2',#162);
#136=AXIS2_PLACEMENT_3D('',#163,#164,#165);
#137=COORDINATED_UNIVERSAL_TIME_OFFSET(1,0,.AHEAD.);
#138=PERSON('','UNSPECIFIED',$,$,$,$);
#139=ORGANIZATION('UNSPECIFIED','UNSPECIFIED','UNSPECIFIED');
#140=APPROVAL_STATUS('approved');
#141=SECURITY_CLASSIFICATION_LEVEL('unclassified');
#142=MECHANICAL_CONTEXT('',#99,'mechanical');
#143=MANIFOLD_SOLID_BREP('3',#166);
#144=AXIS2_PLACEMENT_3D('',#167,#168,#169);
#147=LENGTH_MEASURE_WITH_UNIT(LENGTH_MEASURE(1.0),#170);
#150=DIMENSIONAL_EXPONENTS(1.0,0.0,0.0,0.0,0.0,0.0,0.0);
#152=DIMENSIONAL_EXPONENTS(0.0,0.0,0.0,0.0,0.0,0.0,0.0);
#158=CLOSED_SHELL('',(#171,#172));
#159=CARTESIAN_POINT('',(0.0,0.0,0.0));
#160=DIRECTION('',(0.0,0.0,1.0));
#161=DIRECTION('',(1.0,0.0,0.0));
#162=CLOSED_SHELL('',(#173,#174,#175,#176,#177));
#163=CARTESIAN_POINT('',(0.0,0.0,0.0));
#164=DIRECTION('',(0.0,0.0,1.0));
#165=DIRECTION('',(1.0,0.0,0.0));
#166=CLOSED_SHELL('',(#178,#179,#180,#181,#182));
#167=CARTESIAN_POINT('',(0.0,0.0,0.0));
#168=DIRECTION('',(0.0,0.0,1.0));
#169=DIRECTION('',(1.0,0.0,0.0));
#170= (NAMED_UNIT(#150)LENGTH_UNIT()SI_UNIT(.MILLI.,.METRE.));
#171=ADVANCED_FACE('',(#184),#185,.T.);
#172=ADVANCED_FACE('',(#186),#187,.T.);
#173=ADVANCED_FACE('',(#188),#189,.T.);
#174=ADVANCED_FACE('',(#190),#191,.T.);
#175=ADVANCED_FACE('',(#192),#193,.T.);
#176=ADVANCED_FACE('',(#194),#195,.T.);
#177=ADVANCED_FACE('',(#196),#197,.T.);
#178=ADVANCED_FACE('',(#198),#199,.T.);
#179=ADVANCED_FACE('',(#200),#201,.T.);
#180=ADVANCED_FACE('',(#202),#203,.T.);
#181=ADVANCED_FACE('',(#204),#205,.T.);
#182=ADVANCED_FACE('',(#206),#207,.T.);
#184=FACE_OUTER_BOUND('',#208,.T.);
#185=SPHERICAL_SURFACE('',#209,1000.0);
#186=FACE_OUTER_BOUND('',#210,.T.);
#187=SPHERICAL_SURFACE('',#211,1000.0);
#188=FACE_OUTER_BOUND('',#212,.T.);
#189=CYLINDRICAL_SURFACE('',#213,15.0);
#190=FACE_OUTER_BOUND('',#214,.T.);
#191=SPHERICAL_SURFACE('',#215,15.0);
#192=FACE_OUTER_BOUND('',#216,.T.);
#193=SPHERICAL_SURFACE('',#217,15.0);
#194=FACE_OUTER_BOUND('',#218,.T.);
#195=CYLINDRICAL_SURFACE('',#219,15.0);
#196=FACE_OUTER_BOUND('',#220,.T.);
#197=PLANE('',#221);
#198=FACE_OUTER_BOUND('',#222,.T.);
#199=CYLINDRICAL_SURFACE('',#223,15.0);
#200=FACE_OUTER_BOUND('',#224,.T.);
#201=SPHERICAL_SURFACE('',#225,15.0);
#202=FACE_OUTER_BOUND('',#226,.T.);
#203=SPHERICAL_SURFACE('',#227,15.0);
#204=FACE_OUTER_BOUND('',#228,.T.);
#205=CYLINDRICAL_SURFACE('',#229,15.0);
#206=FACE_OUTER_BOUND('',#230,.T.);
#207=PLANE('',#231);
#208=EDGE_LOOP('',(#232,#233));
#209=AXIS2_PLACEMENT_3D('',#234,#235,#236);
#210=EDGE_LOOP('',(#237,#238));
#211=AXIS2_PLACEMENT_3D('',#239,#240,#241);
#212=EDGE_LOOP('',(#242,#243,#244,#245));
#213=AXIS2_PLACEMENT_3D('',#246,#247,#248);
#214=EDGE_LOOP('',(#249,#250));
#215=AXIS2_PLACEMENT_3D('',#251,#252,#253);
#216=EDGE_LOOP('',(#254,#255));
#217=AXIS2_PLACEMENT_3D('',#256,#257,#258);
#218=EDGE_LOOP('',(#259,#260,#261,#262));
#219=AXIS2_PLACEMENT_3D('',#263,#264,#265);
#220=EDGE_LOOP('',(#266,#267));
#221=AXIS2_PLACEMENT_3D('',#268,#269,#270);
#222=EDGE_LOOP('',(#271,#272,#273,#274));
#223=AXIS2_PLACEMENT_3D('',#275,#276,#277);
#224=EDGE_LOOP('',(#278,#279));
#225=AXIS2_PLACEMENT_3D('',#280,#281,#282);
#226=EDGE_LOOP('',(#283,#284));
#227=AXIS2_PLACEMENT_3D('',#285,#286,#287);
#228=EDGE_LOOP('',(#288,#289,#290,#291));
#229=AXIS2_PLACEMENT_3D('',#292,#293,#294);
#230=EDGE_LOOP('',(#295,#296));
#231=AXIS2_PLACEMENT_3D('',#297,#298,#299);
#232=ORIENTED_EDGE('',*,*,#300,.F.);
#233=ORIENTED_EDGE('',*,*,#301,.F.);
#234=CARTESIAN_POINT('',(0.0,0.0,0.0));
#235=DIRECTION('',(0.0,0.0,1.0));
#236=DIRECTION('',(1.0,0.0,0.0));
#237=ORIENTED_EDGE('',*,*,#300,.T.);
#238=ORIENTED_EDGE('',*,*,#301,.T.);
#239=CARTESIAN_POINT('',(0.0,0.0,0.0));
#240=DIRECTION('',(0.0,0.0,1.0));
#241=DIRECTION('',(1.0,0.0,0.0));
#242=ORIENTED_EDGE('',*,*,#302,.F.);
#243=ORIENTED_EDGE('',*,*,#303,.F.);
#244=ORIENTED_EDGE('',*,*,#304,.F.);
#245=ORIENTED_EDGE('',*,*,#305,.F.);
#246=CARTESIAN_POINT('',(-60.0,7.34763812293426E-015,-2.51044302533587E-014));
#247=DIRECTION('',(1.0,-1.22460635382238E-016,4.28612223837832E-016));
#248=DIRECTION('',(-4.28612223837832E-016,-1.22460635382238E-016,1.0));
#249=ORIENTED_EDGE('',*,*,#306,.F.);
#250=ORIENTED_EDGE('',*,*,#305,.T.);
#251=CARTESIAN_POINT('',(-110.0,1.34706698920462E-014,-4.04120096761385E-014));
#252=DIRECTION('',(3.67381906146713E-016,1.22460635382238E-016,-1.0));
#253=DIRECTION('',(-1.0,1.22460635382238E-016,-3.67381906146713E-016));
#254=ORIENTED_EDGE('',*,*,#306,.T.);
#255=ORIENTED_EDGE('',*,*,#307,.T.);
#256=CARTESIAN_POINT('',(-110.0,1.34706698920462E-014,-4.04120096761385E-014));
#257=DIRECTION('',(3.67381906146713E-016,1.22460635382238E-016,-1.0));
#258=DIRECTION('',(-1.0,1.22460635382238E-016,-3.67381906146713E-016));
#259=ORIENTED_EDGE('',*,*,#302,.T.);
#260=ORIENTED_EDGE('',*,*,#307,.F.);
#261=ORIENTED_EDGE('',*,*,#304,.T.);
#262=ORIENTED_EDGE('',*,*,#308,.F.);
#263=CARTESIAN_POINT('',(-60.0,7.34763812293426E-015,-2.51044302533587E-014));
#264=DIRECTION('',(1.0,-1.22460635382238E-016,4.28612223837832E-016));
#265=DIRECTION('',(-4.28612223837832E-016,-1.22460635382238E-016,1.0));
#266=ORIENTED_EDGE('',*,*,#308,.T.);
#267=ORIENTED_EDGE('',*,*,#303,.T.);
#268=CARTESIAN_POINT('',(-10.0,1.22460635382238E-015,-3.67381906146713E-015));
#269=DIRECTION('',(1.0,-1.22460635382238E-016,4.28612223837832E-016));
#270=DIRECTION('',(4.28612223837832E-016,1.22460635382238E-016,-1.0));
#271=ORIENTED_EDGE('',*,*,#309,.F.);
#272=ORIENTED_EDGE('',*,*,#310,.F.);
#273=ORIENTED_EDGE('',*,*,#311,.F.);
#274=ORIENTED_EDGE('',*,*,#312,.F.);
#275=CARTESIAN_POINT('',(60.0,0.0,3.06151588455594E-015));
#276=DIRECTION('',(-1.0,0.0,-6.12303176911189E-017));
#277=DIRECTION('',(6.12303176911189E-017,0.0,-1.0));
#278=ORIENTED_EDGE('',*,*,#313,.F.);
#279=ORIENTED_EDGE('',*,*,#312,.T.);
#280=CARTESIAN_POINT('',(110.0,0.0,0.0));
#281=DIRECTION('',(0.0,0.0,1.0));
#282=DIRECTION('',(1.0,0.0,0.0));
#283=ORIENTED_EDGE('',*,*,#313,.T.);
#284=ORIENTED_EDGE('',*,*,#314,.T.);
#285=CARTESIAN_POINT('',(110.0,0.0,0.0));
#286=DIRECTION('',(0.0,0.0,1.0));
#287=DIRECTION('',(1.0,0.0,0.0));
#288=ORIENTED_EDGE('',*,*,#309,.T.);
#289=ORIENTED_EDGE('',*,*,#314,.F.);
#290=ORIENTED_EDGE('',*,*,#311,.T.);
#291=ORIENTED_EDGE('',*,*,#315,.F.);
#292=CARTESIAN_POINT('',(60.0,0.0,3.06151588455594E-015));
#293=DIRECTION('',(-1.0,0.0,-6.12303176911189E-017));
#294=DIRECTION('',(6.12303176911189E-017,0.0,-1.0));
#295=ORIENTED_EDGE('',*,*,#315,.T.);
#296=ORIENTED_EDGE('',*,*,#310,.T.);
#297=CARTESIAN_POINT('',(10.0,0.0,0.0));
#298=DIRECTION('',(-1.0,0.0,-6.12303176911189E-017));
#299=DIRECTION('',(-6.12303176911189E-017,0.0,1.0));
#300=EDGE_CURVE('',#316,#317,#318,.T.);
#301=EDGE_CURVE('',#317,#316,#319,.T.);
#302=EDGE_CURVE('',#320,#321,#322,.T.);
#303=EDGE_CURVE('',#323,#320,#324,.T.);
#304=EDGE_CURVE('',#325,#323,#326,.T.);
#305=EDGE_CURVE('',#321,#325,#327,.T.);
#306=EDGE_CURVE('',#321,#325,#328,.T.);
#307=EDGE_CURVE('',#325,#321,#329,.T.);
#308=EDGE_CURVE('',#320,#323,#330,.T.);
#309=EDGE_CURVE('',#331,#332,#333,.T.);
#310=EDGE_CURVE('',#334,#331,#335,.T.);
#311=EDGE_CURVE('',#336,#334,#337,.T.);
#312=EDGE_CURVE('',#332,#336,#338,.T.);
#313=EDGE_CURVE('',#332,#336,#339,.T.);
#314=EDGE_CURVE('',#336,#332,#340,.T.);
#315=EDGE_CURVE('',#331,#334,#341,.T.);
#316=VERTEX_POINT('',#342);
#317=VERTEX_POINT('',#343);
#318=CIRCLE('',#344,1000.0);
#319=CIRCLE('',#345,1000.0);
#320=VERTEX_POINT('',#346);
#321=VERTEX_POINT('',#347);
#322=LINE('',#348,#349);
#323=VERTEX_POINT('',#350);
#324=CIRCLE('',#351,15.0);
#325=VERTEX_POINT('',#352);
#326=LINE('',#353,#354);
#327=CIRCLE('',#355,15.0);
#328=CIRCLE('',#356,15.0);
#329=CIRCLE('',#357,15.0);
#330=CIRCLE('',#358,15.0);
#331=VERTEX_POINT('',#359);
#332=VERTEX_POINT('',#360);
#333=LINE('',#361,#362);
#334=VERTEX_POINT('',#363);
#335=CIRCLE('',#364,15.0);
#336=VERTEX_POINT('',#365);
#337=LINE('',#366,#367);
#338=CIRCLE('',#368,15.0);
#339=CIRCLE('',#369,15.0);
#340=CIRCLE('',#370,15.0);
#341=CIRCLE('',#371,15.0);
#342=CARTESIAN_POINT('',(1.22460635382238E-013,-1.49966072182214E-029,-1000.0));
#343=CARTESIAN_POINT('',(0.0,0.0,1000.0));
#344=AXIS2_PLACEMENT_3D('',#372,#373,#374);
#345=AXIS2_PLACEMENT_3D('',#375,#376,#377);
#346=CARTESIAN_POINT('',(-10.0,-6.1230317691119E-016,15.0));
#347=CARTESIAN_POINT('',(-110.0,1.16337603613126E-014,15.0));
#348=CARTESIAN_POINT('',(-60.0,3.67381906146713E-015,15.0));
#349=VECTOR('',#378,1.0);
#350=CARTESIAN_POINT('',(-9.99999999999999,4.89842541528951E-015,-15.0));
#351=AXIS2_PLACEMENT_3D('',#379,#380,#381);
#352=CARTESIAN_POINT('',(-110.0,1.53075794227797E-014,-15.0));
#353=CARTESIAN_POINT('',(-60.0,1.10214571844014E-014,-15.0));
#354=VECTOR('',#382,1.0);
#355=AXIS2_PLACEMENT_3D('',#383,#384,#385);
#356=AXIS2_PLACEMENT_3D('',#386,#387,#388);
#357=AXIS2_PLACEMENT_3D('',#389,#390,#391);
#358=AXIS2_PLACEMENT_3D('',#392,#393,#394);
#359=CARTESIAN_POINT('',(10.0,0.0,-15.0));
#360=CARTESIAN_POINT('',(110.0,0.0,-15.0));
#361=CARTESIAN_POINT('',(60.0,-1.83690953073357E-015,-15.0));
#362=VECTOR('',#395,1.0);
#363=CARTESIAN_POINT('',(10.0,1.83690953073357E-015,15.0));
#364=AXIS2_PLACEMENT_3D('',#396,#397,#398);
#365=CARTESIAN_POINT('',(110.0,1.1247455413666E-031,15.0));
#366=CARTESIAN_POINT('',(60.0,1.83690953073357E-015,15.0));
#367=VECTOR('',#399,1.0);
#368=AXIS2_PLACEMENT_3D('',#400,#401,#402);
#369=AXIS2_PLACEMENT_3D('',#403,#404,#405);
#370=AXIS2_PLACEMENT_3D('',#406,#407,#408);
#371=AXIS2_PLACEMENT_3D('',#409,#410,#411);
#372=CARTESIAN_POINT('',(0.0,0.0,0.0));
#373=DIRECTION('',(-1.22460635382238E-016,-1.0,0.0));
#374=DIRECTION('',(0.0,0.0,1.0));
#375=CARTESIAN_POINT('',(0.0,0.0,0.0));
#376=DIRECTION('',(-1.22460635382238E-016,-1.0,0.0));
#377=DIRECTION('',(0.0,0.0,1.0));
#378=DIRECTION('',(-1.0,1.22460635382238E-016,-4.28612223837832E-016));
#379=CARTESIAN_POINT('',(-10.0,1.22460635382238E-015,-3.67381906146713E-015));
#380=DIRECTION('',(1.0,-1.22460635382238E-016,4.28612223837832E-016));
#381=DIRECTION('',(-4.28612223837832E-016,-1.22460635382238E-016,1.0));
#382=DIRECTION('',(1.0,-1.22460635382238E-016,4.28612223837832E-016));
#383=CARTESIAN_POINT('',(-110.0,1.34706698920462E-014,-4.65350414452503E-014));
#384=DIRECTION('',(-1.0,1.22460635382238E-016,-4.28612223837832E-016));
#385=DIRECTION('',(-4.28612223837832E-016,-1.22460635382238E-016,1.0));
#386=CARTESIAN_POINT('',(-110.0,1.34706698920462E-014,-4.04120096761385E-014));
#387=DIRECTION('',(4.49898216546641E-032,-1.0,-1.22460635382238E-016));
#388=DIRECTION('',(0.0,-1.22460635382238E-016,1.0));
#389=CARTESIAN_POINT('',(-110.0,1.34706698920462E-014,-4.65350414452503E-014));
#390=DIRECTION('',(-1.0,1.22460635382238E-016,-4.28612223837832E-016));
#391=DIRECTION('',(-4.28612223837832E-016,-1.22460635382238E-016,1.0));
#392=CARTESIAN_POINT('',(-10.0,1.22460635382238E-015,-3.67381906146713E-015));
#393=DIRECTION('',(1.0,-1.22460635382238E-016,4.28612223837832E-016));
#394=DIRECTION('',(-4.28612223837832E-016,-1.22460635382238E-016,1.0));
#395=DIRECTION('',(1.0,0.0,6.12303176911189E-017));
#396=CARTESIAN_POINT('',(10.0,0.0,0.0));
#397=DIRECTION('',(-1.0,0.0,-6.12303176911189E-017));
#398=DIRECTION('',(6.12303176911189E-017,0.0,-1.0));
#399=DIRECTION('',(-1.0,0.0,-6.12303176911189E-017));
#400=CARTESIAN_POINT('',(110.0,0.0,6.12303176911189E-015));
#401=DIRECTION('',(1.0,0.0,6.12303176911189E-017));
#402=DIRECTION('',(6.12303176911189E-017,0.0,-1.0));
#403=CARTESIAN_POINT('',(110.0,0.0,0.0));
#404=DIRECTION('',(-1.22460635382238E-016,-1.0,0.0));
#405=DIRECTION('',(0.0,0.0,1.0));
#406=CARTESIAN_POINT('',(110.0,0.0,6.12303176911189E-015));
#407=DIRECTION('',(1.0,0.0,6.12303176911189E-017));
#408=DIRECTION('',(6.12303176911189E-017,0.0,-1.0));
#409=CARTESIAN_POINT('',(10.0,0.0,0.0));
#410=DIRECTION('',(-1.0,0.0,-6.12303176911189E-017));
#411=DIRECTION('',(6.12303176911189E-017,0.0,-1.0));
ENDSEC;
END-ISO-10303-21;
