ISO-10303-21;
HEADER;
FILE_DESCRIPTION (( 'STEP AP203' ),
    '1' );
FILE_NAME ('2plaques.STEP',
    '2009-08-29T04:02:25',
    ( 'DV' ),
    ( 'EN' ),
    'SwSTEP 2.0',
    'SolidWorks 2003099',
    '' );
FILE_SCHEMA (( 'CONFIG_CONTROL_DESIGN' ));
ENDSEC;

DATA;
#1 = ORIENTED_EDGE ( 'NONE', *, *, #23, .F. ) ;
#2 = ADVANCED_FACE ( 'NONE', ( #34 ), #35, .F. ) ;
#3 = VERTEX_POINT ( 'NONE', #40 ) ;
#4 = VERTEX_POINT ( 'NONE', #58 ) ;
#5 = EDGE_LOOP ( 'NONE', ( #133, #30, #66, #132 ) ) ;
#6 = ORIENTED_EDGE ( 'NONE', *, *, #386, .T. ) ;
#7 = VERTEX_POINT ( 'NONE', #59 ) ;
#8 = EDGE_LOOP ( 'NONE', ( #167, #394, #6, #19 ) ) ;
#9 = ADVANCED_FACE ( 'NONE', ( #64 ), #65, .F. ) ;
#10 = VERTEX_POINT ( 'NONE', #72 ) ;
#11 = EDGE_CURVE ( 'NONE', #3, #389, #73, .T. ) ;
#12 = EDGE_CURVE ( 'NONE', #390, #3, #77, .T. ) ;
#13 = CLOSED_SHELL ( 'NONE', ( #2, #392, #14, #22, #9, #26 ) ) ;
#14 = ADVANCED_FACE ( 'NONE', ( #85 ), #86, .F. ) ;
#15 = ORIENTED_EDGE ( 'NONE', *, *, #386, .F. ) ;
#16 = EDGE_CURVE ( 'NONE', #4, #389, #91, .T. ) ;
#17 = EDGE_CURVE ( 'NONE', #7, #390, #99, .T. ) ;
#18 = EDGE_CURVE ( 'NONE', #24, #10, #103, .T. ) ;
#19 = ORIENTED_EDGE ( 'NONE', *, *, #393, .T. ) ;
#20 = ORIENTED_EDGE ( 'NONE', *, *, #12, .T. ) ;
#21 = ORIENTED_EDGE ( 'NONE', *, *, #31, .T. ) ;
#22 = ADVANCED_FACE ( 'NONE', ( #108 ), #109, .F. ) ;
#23 = EDGE_CURVE ( 'NONE', #10, #3, #114, .T. ) ;
#24 = VERTEX_POINT ( 'NONE', #118 ) ;
#25 = MANIFOLD_SOLID_BREP ( 'NONE', #13 ) ;
#26 = ADVANCED_FACE ( 'NONE', ( #119 ), #120, .F. ) ;
#27 = ORIENTED_EDGE ( 'NONE', *, *, #393, .F. ) ;
#28 = EDGE_CURVE ( 'NONE', #7, #10, #41, .T. ) ;
#29 = ORIENTED_EDGE ( 'NONE', *, *, #11, .T. ) ;
#30 = ORIENTED_EDGE ( 'NONE', *, *, #12, .F. ) ;
#31 = EDGE_CURVE ( 'NONE', #389, #24, #47, .T. ) ;
#32 = ORIENTED_EDGE ( 'NONE', *, *, #11, .F. ) ;
#33 = ORIENTED_EDGE ( 'NONE', *, *, #16, .T. ) ;
#34 = FACE_OUTER_BOUND ( 'NONE', #249, .T. ) ;
#35 = PLANE ( 'NONE',  #36 ) ;
#36 = AXIS2_PLACEMENT_3D ( 'NONE', #37, #38, #39 ) ;
#37 = CARTESIAN_POINT ( 'NONE',  ( 100.0000000000000000, 0.0000000000000000000, 10.00000000000000000 ) ) ;
#38 = DIRECTION ( 'NONE',  ( -1.000000000000000000, 0.0000000000000000000, 0.0000000000000000000 ) ) ;
#39 = DIRECTION ( 'NONE',  ( 0.0000000000000000000, 0.0000000000000000000, 1.000000000000000000 ) ) ;
#40 = CARTESIAN_POINT ( 'NONE',  ( 0.0000000000000000000, 0.0000000000000000000, 0.0000000000000000000 ) ) ;
#41 = LINE ( 'NONE', #42, #43 ) ;
#42 = CARTESIAN_POINT ( 'NONE',  ( 0.0000000000000000000, 50.00000000000000000, 10.00000000000000000 ) ) ;
#43 = VECTOR ( 'NONE', #44, 1000.000000000000000 ) ;
#44 = DIRECTION ( 'NONE',  ( -0.0000000000000000000, -0.0000000000000000000, -1.000000000000000000 ) ) ;
#45 = CARTESIAN_POINT ( 'NONE',  ( 100.0000000000000000, 0.0000000000000000000, 0.0000000000000000000 ) ) ;
#46 = CARTESIAN_POINT ( 'NONE',  ( 0.0000000000000000000, 0.0000000000000000000, 10.00000000000000000 ) ) ;
#47 = LINE ( 'NONE', #48, #50 ) ;
#48 = CARTESIAN_POINT ( 'NONE',  ( 100.0000000000000000, 0.0000000000000000000, 0.0000000000000000000 ) ) ;
#49 = ORIENTED_EDGE ( 'NONE', *, *, #16, .F. ) ;
#50 = VECTOR ( 'NONE', #51, 1000.000000000000000 ) ;
#51 = DIRECTION ( 'NONE',  ( 0.0000000000000000000, 1.000000000000000000, 0.0000000000000000000 ) ) ;
#52 = FACE_OUTER_BOUND ( 'NONE', #283, .T. ) ;
#53 = PLANE ( 'NONE',  #54 ) ;
#54 = AXIS2_PLACEMENT_3D ( 'NONE', #55, #56, #57 ) ;
#55 = CARTESIAN_POINT ( 'NONE',  ( 0.0000000000000000000, 50.00000000000000000, 0.0000000000000000000 ) ) ;
#56 = DIRECTION ( 'NONE',  ( 0.0000000000000000000, 0.0000000000000000000, -1.000000000000000000 ) ) ;
#57 = DIRECTION ( 'NONE',  ( -1.000000000000000000, 0.0000000000000000000, -0.0000000000000000000 ) ) ;
#58 = CARTESIAN_POINT ( 'NONE',  ( 100.0000000000000000, 0.0000000000000000000, 10.00000000000000000 ) ) ;
#59 = CARTESIAN_POINT ( 'NONE',  ( 0.0000000000000000000, 50.00000000000000000, 10.00000000000000000 ) ) ;
#60 = LINE ( 'NONE', #61, #62 ) ;
#61 = CARTESIAN_POINT ( 'NONE',  ( 0.0000000000000000000, 50.00000000000000000, 10.00000000000000000 ) ) ;
#62 = VECTOR ( 'NONE', #63, 1000.000000000000000 ) ;
#63 = DIRECTION ( 'NONE',  ( -1.000000000000000000, -0.0000000000000000000, -0.0000000000000000000 ) ) ;
#64 = FACE_OUTER_BOUND ( 'NONE', #387, .T. ) ;
#65 = PLANE ( 'NONE',  #68 ) ;
#66 = ORIENTED_EDGE ( 'NONE', *, *, #17, .F. ) ;
#67 = ORIENTED_EDGE ( 'NONE', *, *, #18, .T. ) ;
#68 = AXIS2_PLACEMENT_3D ( 'NONE', #69, #70, #71 ) ;
#69 = CARTESIAN_POINT ( 'NONE',  ( 0.0000000000000000000, 0.0000000000000000000, 10.00000000000000000 ) ) ;
#70 = DIRECTION ( 'NONE',  ( 0.0000000000000000000, 1.000000000000000000, 0.0000000000000000000 ) ) ;
#71 = DIRECTION ( 'NONE',  ( 0.0000000000000000000, -0.0000000000000000000, 1.000000000000000000 ) ) ;
#72 = CARTESIAN_POINT ( 'NONE',  ( 0.0000000000000000000, 50.00000000000000000, 0.0000000000000000000 ) ) ;
#73 = LINE ( 'NONE', #74, #75 ) ;
#74 = CARTESIAN_POINT ( 'NONE',  ( 0.0000000000000000000, 0.0000000000000000000, 0.0000000000000000000 ) ) ;
#75 = VECTOR ( 'NONE', #76, 1000.000000000000000 ) ;
#76 = DIRECTION ( 'NONE',  ( 1.000000000000000000, 0.0000000000000000000, 0.0000000000000000000 ) ) ;
#77 = LINE ( 'NONE', #78, #79 ) ;
#78 = CARTESIAN_POINT ( 'NONE',  ( 0.0000000000000000000, 0.0000000000000000000, 10.00000000000000000 ) ) ;
#79 = VECTOR ( 'NONE', #80, 1000.000000000000000 ) ;
#80 = DIRECTION ( 'NONE',  ( -0.0000000000000000000, -0.0000000000000000000, -1.000000000000000000 ) ) ;
#81 = LINE ( 'NONE', #82, #83 ) ;
#82 = CARTESIAN_POINT ( 'NONE',  ( 0.0000000000000000000, 0.0000000000000000000, 10.00000000000000000 ) ) ;
#83 = VECTOR ( 'NONE', #84, 1000.000000000000000 ) ;
#84 = DIRECTION ( 'NONE',  ( 1.000000000000000000, 0.0000000000000000000, 0.0000000000000000000 ) ) ;
#85 = FACE_OUTER_BOUND ( 'NONE', #391, .T. ) ;
#86 = PLANE ( 'NONE',  #87 ) ;
#87 = AXIS2_PLACEMENT_3D ( 'NONE', #88, #89, #90 ) ;
#88 = CARTESIAN_POINT ( 'NONE',  ( 0.0000000000000000000, 50.00000000000000000, 10.00000000000000000 ) ) ;
#89 = DIRECTION ( 'NONE',  ( 0.0000000000000000000, -1.000000000000000000, 0.0000000000000000000 ) ) ;
#90 = DIRECTION ( 'NONE',  ( 0.0000000000000000000, -0.0000000000000000000, -1.000000000000000000 ) ) ;
#91 = LINE ( 'NONE', #92, #93 ) ;
#92 = CARTESIAN_POINT ( 'NONE',  ( 100.0000000000000000, 0.0000000000000000000, 10.00000000000000000 ) ) ;
#93 = VECTOR ( 'NONE', #94, 1000.000000000000000 ) ;
#94 = DIRECTION ( 'NONE',  ( -0.0000000000000000000, -0.0000000000000000000, -1.000000000000000000 ) ) ;
#95 = LINE ( 'NONE', #96, #97 ) ;
#96 = CARTESIAN_POINT ( 'NONE',  ( 100.0000000000000000, 50.00000000000000000, 10.00000000000000000 ) ) ;
#97 = VECTOR ( 'NONE', #98, 1000.000000000000000 ) ;
#98 = DIRECTION ( 'NONE',  ( -0.0000000000000000000, -0.0000000000000000000, -1.000000000000000000 ) ) ;
#99 = LINE ( 'NONE', #100, #101 ) ;
#100 = CARTESIAN_POINT ( 'NONE',  ( 0.0000000000000000000, 0.0000000000000000000, 10.00000000000000000 ) ) ;
#101 = VECTOR ( 'NONE', #102, 1000.000000000000000 ) ;
#102 = DIRECTION ( 'NONE',  ( -0.0000000000000000000, -1.000000000000000000, -0.0000000000000000000 ) ) ;
#103 = LINE ( 'NONE', #104, #105 ) ;
#104 = CARTESIAN_POINT ( 'NONE',  ( 0.0000000000000000000, 50.00000000000000000, 0.0000000000000000000 ) ) ;
#105 = VECTOR ( 'NONE', #106, 1000.000000000000000 ) ;
#106 = DIRECTION ( 'NONE',  ( -1.000000000000000000, -0.0000000000000000000, -0.0000000000000000000 ) ) ;
#107 = CARTESIAN_POINT ( 'NONE',  ( 100.0000000000000000, 50.00000000000000000, 10.00000000000000000 ) ) ;
#108 = FACE_OUTER_BOUND ( 'NONE', #8, .T. ) ;
#109 = PLANE ( 'NONE',  #110 ) ;
#110 = AXIS2_PLACEMENT_3D ( 'NONE', #111, #112, #113 ) ;
#111 = CARTESIAN_POINT ( 'NONE',  ( 0.0000000000000000000, 50.00000000000000000, 10.00000000000000000 ) ) ;
#112 = DIRECTION ( 'NONE',  ( 0.0000000000000000000, 0.0000000000000000000, -1.000000000000000000 ) ) ;
#113 = DIRECTION ( 'NONE',  ( -1.000000000000000000, 0.0000000000000000000, -0.0000000000000000000 ) ) ;
#114 = LINE ( 'NONE', #115, #116 ) ;
#115 = CARTESIAN_POINT ( 'NONE',  ( 0.0000000000000000000, 0.0000000000000000000, 0.0000000000000000000 ) ) ;
#116 = VECTOR ( 'NONE', #117, 1000.000000000000000 ) ;
#117 = DIRECTION ( 'NONE',  ( -0.0000000000000000000, -1.000000000000000000, -0.0000000000000000000 ) ) ;
#118 = CARTESIAN_POINT ( 'NONE',  ( 100.0000000000000000, 50.00000000000000000, 0.0000000000000000000 ) ) ;
#119 = FACE_OUTER_BOUND ( 'NONE', #5, .T. ) ;
#120 = PLANE ( 'NONE',  #121 ) ;
#121 = AXIS2_PLACEMENT_3D ( 'NONE', #122, #123, #124 ) ;
#122 = CARTESIAN_POINT ( 'NONE',  ( 0.0000000000000000000, 0.0000000000000000000, 10.00000000000000000 ) ) ;
#123 = DIRECTION ( 'NONE',  ( 1.000000000000000000, 0.0000000000000000000, 0.0000000000000000000 ) ) ;
#124 = DIRECTION ( 'NONE',  ( 0.0000000000000000000, 0.0000000000000000000, -1.000000000000000000 ) ) ;
#125 = LINE ( 'NONE', #126, #127 ) ;
#126 = CARTESIAN_POINT ( 'NONE',  ( 100.0000000000000000, 0.0000000000000000000, 10.00000000000000000 ) ) ;
#127 = VECTOR ( 'NONE', #128, 1000.000000000000000 ) ;
#128 = DIRECTION ( 'NONE',  ( 0.0000000000000000000, 1.000000000000000000, 0.0000000000000000000 ) ) ;
#129 =( LENGTH_UNIT ( ) NAMED_UNIT ( * ) SI_UNIT ( .MILLI., .METRE. ) );
#130 =( NAMED_UNIT ( * ) PLANE_ANGLE_UNIT ( ) SI_UNIT ( $, .RADIAN. ) );
#131 =( NAMED_UNIT ( * ) SI_UNIT ( $, .STERADIAN. ) SOLID_ANGLE_UNIT ( ) );
#132 = ORIENTED_EDGE ( 'NONE', *, *, #28, .T. ) ;
#133 = ORIENTED_EDGE ( 'NONE', *, *, #23, .T. ) ;
#134 = ORIENTED_EDGE ( 'NONE', *, *, #266, .T. ) ;
#135 = UNCERTAINTY_MEASURE_WITH_UNIT (LENGTH_MEASURE( 1.000000000000000100E-005 ), #129, 'distance_accuracy_value', 'NONE');
#136 =( GEOMETRIC_REPRESENTATION_CONTEXT ( 3 ) GLOBAL_UNCERTAINTY_ASSIGNED_CONTEXT ( ( #135 ) ) GLOBAL_UNIT_ASSIGNED_CONTEXT ( ( #129, #130, #131 ) ) REPRESENTATION_CONTEXT ( 'NONE', 'WORKASPACE' ) );
#137 = ADVANCED_BREP_SHAPE_REPRESENTATION ( '', ( #25, #138 ), #136 ) ;
#138 = AXIS2_PLACEMENT_3D ( 'NONE', #139, #140, #141 ) ;
#139 = CARTESIAN_POINT ( 'NONE',  ( 0.0000000000000000000, 0.0000000000000000000, 0.0000000000000000000 ) ) ;
#140 = DIRECTION ( 'NONE',  ( 0.0000000000000000000, 0.0000000000000000000, 1.000000000000000000 ) ) ;
#141 = DIRECTION ( 'NONE',  ( 1.000000000000000000, 0.0000000000000000000, 0.0000000000000000000 ) ) ;
#142 = SHAPE_REPRESENTATION ( 'plaque_Défaut', ( #138 ), #136 ) ;
#143 = SHAPE_REPRESENTATION_RELATIONSHIP ( 'NONE' , 'NONE' ,  #142, #137 ) ;
#144 = SHAPE_REPRESENTATION ( '2plaques', ( #162, #149, #153 ), #161 ) ;
#145 = AXIS2_PLACEMENT_3D ( 'NONE', #146, #147, #148 ) ;
#146 = CARTESIAN_POINT ( 'NONE',  ( 0.0000000000000000000, 0.0000000000000000000, 0.0000000000000000000 ) ) ;
#147 = DIRECTION ( 'NONE',  ( 0.0000000000000000000, 0.0000000000000000000, 1.000000000000000000 ) ) ;
#148 = DIRECTION ( 'NONE',  ( 1.000000000000000000, 0.0000000000000000000, 0.0000000000000000000 ) ) ;
#149 = AXIS2_PLACEMENT_3D ( 'NONE', #150, #151, #152 ) ;
#150 = CARTESIAN_POINT ( 'NONE',  ( -31.50000000000000000, 0.0000000000000000000, 10.00000000000000000 ) ) ;
#151 = DIRECTION ( 'NONE',  ( 0.0000000000000000000, 0.0000000000000000000, 1.000000000000000000 ) ) ;
#152 = DIRECTION ( 'NONE',  ( 1.000000000000000000, 0.0000000000000000000, 0.0000000000000000000 ) ) ;
#153 = AXIS2_PLACEMENT_3D ( 'NONE', #154, #155, #156 ) ;
#154 = CARTESIAN_POINT ( 'NONE',  ( 0.0000000000000000000, 0.0000000000000000000, 0.0000000000000000000 ) ) ;
#155 = DIRECTION ( 'NONE',  ( 0.0000000000000000000, 0.0000000000000000000, 1.000000000000000000 ) ) ;
#156 = DIRECTION ( 'NONE',  ( 1.000000000000000000, 0.0000000000000000000, 0.0000000000000000000 ) ) ;
#157 =( LENGTH_UNIT ( ) NAMED_UNIT ( * ) SI_UNIT ( .MILLI., .METRE. ) );
#158 =( NAMED_UNIT ( * ) PLANE_ANGLE_UNIT ( ) SI_UNIT ( $, .RADIAN. ) );
#159 =( NAMED_UNIT ( * ) SI_UNIT ( $, .STERADIAN. ) SOLID_ANGLE_UNIT ( ) );
#160 = UNCERTAINTY_MEASURE_WITH_UNIT (LENGTH_MEASURE( 1.000000000000000100E-005 ), #157, 'distance_accuracy_value', 'NONE');
#161 =( GEOMETRIC_REPRESENTATION_CONTEXT ( 3 ) GLOBAL_UNCERTAINTY_ASSIGNED_CONTEXT ( ( #160 ) ) GLOBAL_UNIT_ASSIGNED_CONTEXT ( ( #157, #158, #159 ) ) REPRESENTATION_CONTEXT ( 'NONE', 'WORKASPACE' ) );
#162 = AXIS2_PLACEMENT_3D ( 'NONE', #163, #164, #165 ) ;
#163 = CARTESIAN_POINT ( 'NONE',  ( 0.0000000000000000000, 0.0000000000000000000, 0.0000000000000000000 ) ) ;
#164 = DIRECTION ( 'NONE',  ( 0.0000000000000000000, 0.0000000000000000000, 1.000000000000000000 ) ) ;
#165 = DIRECTION ( 'NONE',  ( 1.000000000000000000, 0.0000000000000000000, 0.0000000000000000000 ) ) ;
#166 = APPLICATION_CONTEXT ( 'configuration controlled 3d designs of mechanical parts and assemblies' ) ;
#167 = ORIENTED_EDGE ( 'NONE', *, *, #17, .T. ) ;
#168 = APPLICATION_PROTOCOL_DEFINITION ( 'international standard', 'config_control_design', 1994, #166 ) ;
#169 = MECHANICAL_CONTEXT ( 'NONE', #166, 'mechanical' ) ;
#170 = PRODUCT ( '2plaques', '2plaques', '', ( #169 ) ) ;
#171 = PERSON ( 'UNSPECIFIED', 'UNSPECIFIED', 'UNSPECIFIED', ('UNSPECIFIED'), ('UNSPECIFIED'), ('UNSPECIFIED') ) ;
#172 = ORGANIZATION ( 'UNSPECIFIED', 'UNSPECIFIED', '' ) ;
#173 = PERSON_AND_ORGANIZATION ( #171, #172 ) ;
#174 = PERSON_AND_ORGANIZATION_ROLE ( 'design_owner' ) ;
#175 = CC_DESIGN_PERSON_AND_ORGANIZATION_ASSIGNMENT ( #173, #174, ( #170 ) ) ;
#176 = APPLICATION_CONTEXT ( 'configuration controlled 3d designs of mechanical parts and assemblies' ) ;
#177 = APPLICATION_PROTOCOL_DEFINITION ( 'international standard', 'config_control_design', 1994, #176 ) ;
#178 = DESIGN_CONTEXT ( 'detailed design', #176, 'design' ) ;
#179 = PRODUCT_DEFINITION ( 'UNKNOWN', '', #200, #178 ) ;
#180 = PERSON_AND_ORGANIZATION ( #171, #172 ) ;
#181 = APPROVAL_STATUS ( 'not_yet_approved' ) ;
#182 = APPROVAL ( #181, 'UNSPECIFIED' ) ;
#183 = APPROVAL_ROLE ( '' ) ;
#184 = APPROVAL_PERSON_ORGANIZATION ( #180, #182, #183 ) ;
#185 = COORDINATED_UNIVERSAL_TIME_OFFSET ( 1, 0, .AHEAD. ) ;
#186 = LOCAL_TIME ( 6, 2, 25.00000000000000000, #185 ) ;
#187 = CALENDAR_DATE ( 2009, 29, 8 ) ;
#188 = DATE_AND_TIME ( #187, #186 ) ;
#189 = APPROVAL_DATE_TIME ( #188, #182 ) ;
#190 = CC_DESIGN_APPROVAL ( #182, ( #179 ) ) ;
#191 = PERSON_AND_ORGANIZATION ( #171, #172 ) ;
#192 = PERSON_AND_ORGANIZATION_ROLE ( 'creator' ) ;
#193 = CC_DESIGN_PERSON_AND_ORGANIZATION_ASSIGNMENT ( #191, #192, ( #179 ) ) ;
#194 = COORDINATED_UNIVERSAL_TIME_OFFSET ( 1, 0, .AHEAD. ) ;
#195 = LOCAL_TIME ( 6, 2, 25.00000000000000000, #194 ) ;
#196 = CALENDAR_DATE ( 2009, 29, 8 ) ;
#197 = DATE_AND_TIME ( #196, #195 ) ;
#198 = DATE_TIME_ROLE ( 'creation_date' ) ;
#199 = CC_DESIGN_DATE_AND_TIME_ASSIGNMENT ( #197, #198, ( #179 ) ) ;
#200 = PRODUCT_DEFINITION_FORMATION_WITH_SPECIFIED_SOURCE ( 'ANY', '', #170, .NOT_KNOWN. ) ;
#201 = PERSON_AND_ORGANIZATION ( #171, #172 ) ;
#202 = APPROVAL_STATUS ( 'not_yet_approved' ) ;
#203 = APPROVAL ( #202, 'UNSPECIFIED' ) ;
#204 = APPROVAL_ROLE ( '' ) ;
#205 = APPROVAL_PERSON_ORGANIZATION ( #201, #203, #204 ) ;
#206 = COORDINATED_UNIVERSAL_TIME_OFFSET ( 1, 0, .AHEAD. ) ;
#207 = LOCAL_TIME ( 6, 2, 25.00000000000000000, #206 ) ;
#208 = CALENDAR_DATE ( 2009, 29, 8 ) ;
#209 = DATE_AND_TIME ( #208, #207 ) ;
#210 = APPROVAL_DATE_TIME ( #209, #203 ) ;
#211 = CC_DESIGN_APPROVAL ( #203, ( #200 ) ) ;
#212 = PERSON_AND_ORGANIZATION ( #171, #172 ) ;
#213 = PERSON_AND_ORGANIZATION_ROLE ( 'creator' ) ;
#214 = CC_DESIGN_PERSON_AND_ORGANIZATION_ASSIGNMENT ( #212, #213, ( #200 ) ) ;
#215 = PERSON_AND_ORGANIZATION ( #171, #172 ) ;
#216 = EDGE_CURVE ( 'NONE', #390, #4, #81, .T. ) ;
#217 = PERSON_AND_ORGANIZATION_ROLE ( 'design_supplier' ) ;
#218 = CC_DESIGN_PERSON_AND_ORGANIZATION_ASSIGNMENT ( #215, #217, ( #200 ) ) ;
#219 = SECURITY_CLASSIFICATION_LEVEL ( 'unclassified' ) ;
#220 = SECURITY_CLASSIFICATION ( '', '', #219 ) ;
#221 = PERSON_AND_ORGANIZATION ( #171, #172 ) ;
#222 = PERSON_AND_ORGANIZATION_ROLE ( 'classification_officer' ) ;
#223 = CC_DESIGN_PERSON_AND_ORGANIZATION_ASSIGNMENT ( #221, #222, ( #220 ) ) ;
#224 = COORDINATED_UNIVERSAL_TIME_OFFSET ( 1, 0, .AHEAD. ) ;
#225 = LOCAL_TIME ( 6, 2, 25.00000000000000000, #224 ) ;
#226 = CALENDAR_DATE ( 2009, 29, 8 ) ;
#227 = DATE_AND_TIME ( #226, #225 ) ;
#228 = DATE_TIME_ROLE ( 'classification_date' ) ;
#229 = CC_DESIGN_DATE_AND_TIME_ASSIGNMENT ( #227, #228, ( #220 ) ) ;
#230 = PERSON_AND_ORGANIZATION ( #171, #172 ) ;
#231 = APPROVAL_STATUS ( 'not_yet_approved' ) ;
#232 = APPROVAL ( #231, 'UNSPECIFIED' ) ;
#233 = APPROVAL_ROLE ( '' ) ;
#234 = APPROVAL_PERSON_ORGANIZATION ( #230, #232, #233 ) ;
#235 = COORDINATED_UNIVERSAL_TIME_OFFSET ( 1, 0, .AHEAD. ) ;
#236 = LOCAL_TIME ( 6, 2, 25.00000000000000000, #235 ) ;
#237 = CALENDAR_DATE ( 2009, 29, 8 ) ;
#238 = DATE_AND_TIME ( #237, #236 ) ;
#239 = APPROVAL_DATE_TIME ( #238, #232 ) ;
#240 = CC_DESIGN_APPROVAL ( #232, ( #220 ) ) ;
#241 = CC_DESIGN_SECURITY_CLASSIFICATION ( #220, ( #200 ) ) ;
#242 = PRODUCT_RELATED_PRODUCT_CATEGORY ( 'detail', '', ( #170 ) ) ;
#243 = PRODUCT_DEFINITION_SHAPE ( 'NONE', 'NONE',  #179 ) ;
#244 = SHAPE_DEFINITION_REPRESENTATION ( #243, #144 ) ;
#245 = APPLICATION_CONTEXT ( 'configuration controlled 3d designs of mechanical parts and assemblies' ) ;
#246 = APPLICATION_PROTOCOL_DEFINITION ( 'international standard', 'config_control_design', 1994, #245 ) ;
#247 = MECHANICAL_CONTEXT ( 'NONE', #245, 'mechanical' ) ;
#248 = PRODUCT ( 'plaque_Défaut', 'plaque_Défaut', '', ( #247 ) ) ;
#249 = EDGE_LOOP ( 'NONE', ( #21, #384, #15, #33 ) ) ;
#250 = PERSON_AND_ORGANIZATION ( #171, #172 ) ;
#251 = PERSON_AND_ORGANIZATION_ROLE ( 'design_owner' ) ;
#252 = CC_DESIGN_PERSON_AND_ORGANIZATION_ASSIGNMENT ( #250, #251, ( #248 ) ) ;
#253 = APPLICATION_CONTEXT ( 'configuration controlled 3d designs of mechanical parts and assemblies' ) ;
#254 = APPLICATION_PROTOCOL_DEFINITION ( 'international standard', 'config_control_design', 1994, #253 ) ;
#255 = DESIGN_CONTEXT ( 'detailed design', #253, 'design' ) ;
#256 = PRODUCT_DEFINITION ( 'UNKNOWN', '', #278, #255 ) ;
#257 = PERSON_AND_ORGANIZATION ( #171, #172 ) ;
#258 = APPROVAL_STATUS ( 'not_yet_approved' ) ;
#259 = APPROVAL ( #258, 'UNSPECIFIED' ) ;
#260 = APPROVAL_ROLE ( '' ) ;
#261 = APPROVAL_PERSON_ORGANIZATION ( #257, #259, #260 ) ;
#262 = COORDINATED_UNIVERSAL_TIME_OFFSET ( 1, 0, .AHEAD. ) ;
#263 = LOCAL_TIME ( 6, 2, 25.00000000000000000, #262 ) ;
#264 = CALENDAR_DATE ( 2009, 29, 8 ) ;
#265 = DATE_AND_TIME ( #264, #263 ) ;
#266 = EDGE_CURVE ( 'NONE', #317, #24, #95, .T. ) ;
#267 = APPROVAL_DATE_TIME ( #265, #259 ) ;
#268 = CC_DESIGN_APPROVAL ( #259, ( #256 ) ) ;
#269 = PERSON_AND_ORGANIZATION ( #171, #172 ) ;
#270 = PERSON_AND_ORGANIZATION_ROLE ( 'creator' ) ;
#271 = CC_DESIGN_PERSON_AND_ORGANIZATION_ASSIGNMENT ( #269, #270, ( #256 ) ) ;
#272 = COORDINATED_UNIVERSAL_TIME_OFFSET ( 1, 0, .AHEAD. ) ;
#273 = LOCAL_TIME ( 6, 2, 25.00000000000000000, #272 ) ;
#274 = CALENDAR_DATE ( 2009, 29, 8 ) ;
#275 = DATE_AND_TIME ( #274, #273 ) ;
#276 = DATE_TIME_ROLE ( 'creation_date' ) ;
#277 = CC_DESIGN_DATE_AND_TIME_ASSIGNMENT ( #275, #276, ( #256 ) ) ;
#278 = PRODUCT_DEFINITION_FORMATION_WITH_SPECIFIED_SOURCE ( 'ANY', '', #248, .NOT_KNOWN. ) ;
#279 = PERSON_AND_ORGANIZATION ( #171, #172 ) ;
#280 = APPROVAL_STATUS ( 'not_yet_approved' ) ;
#281 = APPROVAL ( #280, 'UNSPECIFIED' ) ;
#282 = APPROVAL_ROLE ( '' ) ;
#283 = EDGE_LOOP ( 'NONE', ( #1, #300, #385, #32 ) ) ;
#284 = APPROVAL_PERSON_ORGANIZATION ( #279, #281, #282 ) ;
#285 = COORDINATED_UNIVERSAL_TIME_OFFSET ( 1, 0, .AHEAD. ) ;
#286 = LOCAL_TIME ( 6, 2, 25.00000000000000000, #285 ) ;
#287 = CALENDAR_DATE ( 2009, 29, 8 ) ;
#288 = DATE_AND_TIME ( #287, #286 ) ;
#289 = APPROVAL_DATE_TIME ( #288, #281 ) ;
#290 = CC_DESIGN_APPROVAL ( #281, ( #278 ) ) ;
#291 = PERSON_AND_ORGANIZATION ( #171, #172 ) ;
#292 = PERSON_AND_ORGANIZATION_ROLE ( 'creator' ) ;
#293 = CC_DESIGN_PERSON_AND_ORGANIZATION_ASSIGNMENT ( #291, #292, ( #278 ) ) ;
#294 = PERSON_AND_ORGANIZATION ( #171, #172 ) ;
#295 = PERSON_AND_ORGANIZATION_ROLE ( 'design_supplier' ) ;
#296 = CC_DESIGN_PERSON_AND_ORGANIZATION_ASSIGNMENT ( #294, #295, ( #278 ) ) ;
#297 = SECURITY_CLASSIFICATION_LEVEL ( 'unclassified' ) ;
#298 = SECURITY_CLASSIFICATION ( '', '', #297 ) ;
#299 = PERSON_AND_ORGANIZATION ( #171, #172 ) ;
#300 = ORIENTED_EDGE ( 'NONE', *, *, #18, .F. ) ;
#301 = PERSON_AND_ORGANIZATION_ROLE ( 'classification_officer' ) ;
#302 = CC_DESIGN_PERSON_AND_ORGANIZATION_ASSIGNMENT ( #299, #301, ( #298 ) ) ;
#303 = COORDINATED_UNIVERSAL_TIME_OFFSET ( 1, 0, .AHEAD. ) ;
#304 = LOCAL_TIME ( 6, 2, 25.00000000000000000, #303 ) ;
#305 = CALENDAR_DATE ( 2009, 29, 8 ) ;
#306 = DATE_AND_TIME ( #305, #304 ) ;
#307 = DATE_TIME_ROLE ( 'classification_date' ) ;
#308 = CC_DESIGN_DATE_AND_TIME_ASSIGNMENT ( #306, #307, ( #298 ) ) ;
#309 = PERSON_AND_ORGANIZATION ( #171, #172 ) ;
#310 = APPROVAL_STATUS ( 'not_yet_approved' ) ;
#311 = APPROVAL ( #310, 'UNSPECIFIED' ) ;
#312 = APPROVAL_ROLE ( '' ) ;
#313 = APPROVAL_PERSON_ORGANIZATION ( #309, #311, #312 ) ;
#314 = COORDINATED_UNIVERSAL_TIME_OFFSET ( 1, 0, .AHEAD. ) ;
#315 = LOCAL_TIME ( 6, 2, 25.00000000000000000, #314 ) ;
#316 = CALENDAR_DATE ( 2009, 29, 8 ) ;
#317 = VERTEX_POINT ( 'NONE', #107 ) ;
#318 = DATE_AND_TIME ( #316, #315 ) ;
#319 = APPROVAL_DATE_TIME ( #318, #311 ) ;
#320 = CC_DESIGN_APPROVAL ( #311, ( #298 ) ) ;
#321 = CC_DESIGN_SECURITY_CLASSIFICATION ( #298, ( #278 ) ) ;
#322 = PRODUCT_RELATED_PRODUCT_CATEGORY ( 'detail', '', ( #248 ) ) ;
#323 = PRODUCT_DEFINITION_SHAPE ( 'NONE', 'NONE',  #256 ) ;
#324 = SHAPE_DEFINITION_REPRESENTATION ( #323, #142 ) ;
#325 = ITEM_DEFINED_TRANSFORMATION ( 'NONE', 'NONE', #149,  #138 ) ;
#326 =( REPRESENTATION_RELATIONSHIP ('NONE','NONE', #144, #142 ) REPRESENTATION_RELATIONSHIP_WITH_TRANSFORMATION ( #325 )SHAPE_REPRESENTATION_RELATIONSHIP( ) );
#327 = PRODUCT_DEFINITION_SHAPE ( 'NONE', 'NONE',  #328 ) ;
#328 = NEXT_ASSEMBLY_USAGE_OCCURRENCE ( 'NAUO1', ' ', ' ', #179, #256, $ ) ;
#329 = SECURITY_CLASSIFICATION_LEVEL ( 'unclassified' ) ;
#330 = SECURITY_CLASSIFICATION ( '', '', #329 ) ;
#331 = CC_DESIGN_SECURITY_CLASSIFICATION ( #330, ( #328 ) ) ;
#332 = APPROVAL_STATUS ( 'not_yet_approved' ) ;
#333 = APPROVAL ( #332, 'UNKNOWN' ) ;
#334 = ORIENTED_EDGE ( 'NONE', *, *, #28, .F. ) ;
#335 = CC_DESIGN_APPROVAL ( #333, ( #330 ) ) ;
#336 = COORDINATED_UNIVERSAL_TIME_OFFSET ( 1, 0, .AHEAD. ) ;
#337 = LOCAL_TIME ( 6, 2, 25.00000000000000000, #336 ) ;
#338 = CALENDAR_DATE ( 2009, 29, 8 ) ;
#339 = DATE_AND_TIME ( #338, #337 ) ;
#340 = COORDINATED_UNIVERSAL_TIME_OFFSET ( 1, 0, .AHEAD. ) ;
#341 = LOCAL_TIME ( 6, 2, 25.00000000000000000, #340 ) ;
#342 = CALENDAR_DATE ( 2009, 29, 8 ) ;
#343 = DATE_AND_TIME ( #342, #341 ) ;
#344 = APPROVAL_DATE_TIME ( #343, #333 ) ;
#345 = APPROVAL_ROLE ( '' ) ;
#346 = PERSON ( 'NAUO-PER1', 'UNSPECIFIED', 'UNSPECIFIED', ('UNSPECIFIED'), ('UNSPECIFIED'), ('UNSPECIFIED') ) ;
#347 = ORGANIZATION ( 'NAUO-ORG1', 'UNSPECIFIED', 'UNSPECIFIED' ) ;
#348 = PERSON_AND_ORGANIZATION ( #346, #347 ) ;
#349 = APPROVAL_PERSON_ORGANIZATION ( #348, #333, #345 ) ;
#350 = DATE_TIME_ROLE ( 'classification_date' ) ;
#351 = PERSON_AND_ORGANIZATION_ROLE ( 'classification_officer' ) ;
#352 = CC_DESIGN_DATE_AND_TIME_ASSIGNMENT ( #339, #350, ( #330 ) ) ;
#353 = CC_DESIGN_PERSON_AND_ORGANIZATION_ASSIGNMENT ( #348, #351, ( #330 ) ) ;
#354 = CONTEXT_DEPENDENT_SHAPE_REPRESENTATION ( #326, #327 ) ;
#355 = ITEM_DEFINED_TRANSFORMATION ( 'NONE', 'NONE', #153,  #138 ) ;
#356 =( REPRESENTATION_RELATIONSHIP ('NONE','NONE', #144, #142 ) REPRESENTATION_RELATIONSHIP_WITH_TRANSFORMATION ( #355 )SHAPE_REPRESENTATION_RELATIONSHIP( ) );
#357 = PRODUCT_DEFINITION_SHAPE ( 'NONE', 'NONE',  #358 ) ;
#358 = NEXT_ASSEMBLY_USAGE_OCCURRENCE ( 'NAUO2', ' ', ' ', #179, #256, $ ) ;
#359 = SECURITY_CLASSIFICATION_LEVEL ( 'unclassified' ) ;
#360 = SECURITY_CLASSIFICATION ( '', '', #359 ) ;
#361 = CC_DESIGN_SECURITY_CLASSIFICATION ( #360, ( #358 ) ) ;
#362 = APPROVAL_STATUS ( 'not_yet_approved' ) ;
#363 = APPROVAL ( #362, 'UNKNOWN' ) ;
#364 = CC_DESIGN_APPROVAL ( #363, ( #360 ) ) ;
#365 = COORDINATED_UNIVERSAL_TIME_OFFSET ( 1, 0, .AHEAD. ) ;
#366 = LOCAL_TIME ( 6, 2, 25.00000000000000000, #365 ) ;
#367 = CALENDAR_DATE ( 2009, 29, 8 ) ;
#368 = DATE_AND_TIME ( #367, #366 ) ;
#369 = COORDINATED_UNIVERSAL_TIME_OFFSET ( 1, 0, .AHEAD. ) ;
#370 = LOCAL_TIME ( 6, 2, 25.00000000000000000, #369 ) ;
#371 = CALENDAR_DATE ( 2009, 29, 8 ) ;
#372 = DATE_AND_TIME ( #371, #370 ) ;
#373 = APPROVAL_DATE_TIME ( #372, #363 ) ;
#374 = APPROVAL_ROLE ( '' ) ;
#375 = PERSON ( 'NAUO-PER2', 'UNSPECIFIED', 'UNSPECIFIED', ('UNSPECIFIED'), ('UNSPECIFIED'), ('UNSPECIFIED') ) ;
#376 = ORGANIZATION ( 'NAUO-ORG2', 'UNSPECIFIED', 'UNSPECIFIED' ) ;
#377 = PERSON_AND_ORGANIZATION ( #375, #376 ) ;
#378 = APPROVAL_PERSON_ORGANIZATION ( #377, #363, #374 ) ;
#379 = DATE_TIME_ROLE ( 'classification_date' ) ;
#380 = PERSON_AND_ORGANIZATION_ROLE ( 'classification_officer' ) ;
#381 = CC_DESIGN_DATE_AND_TIME_ASSIGNMENT ( #368, #379, ( #360 ) ) ;
#382 = CC_DESIGN_PERSON_AND_ORGANIZATION_ASSIGNMENT ( #377, #380, ( #360 ) ) ;
#383 = CONTEXT_DEPENDENT_SHAPE_REPRESENTATION ( #356, #357 ) ;
#384 = ORIENTED_EDGE ( 'NONE', *, *, #266, .F. ) ;
#385 = ORIENTED_EDGE ( 'NONE', *, *, #31, .F. ) ;
#386 = EDGE_CURVE ( 'NONE', #4, #317, #125, .T. ) ;
#387 = EDGE_LOOP ( 'NONE', ( #29, #49, #388, #20 ) ) ;
#388 = ORIENTED_EDGE ( 'NONE', *, *, #216, .F. ) ;
#389 = VERTEX_POINT ( 'NONE', #45 ) ;
#390 = VERTEX_POINT ( 'NONE', #46 ) ;
#391 = EDGE_LOOP ( 'NONE', ( #67, #334, #27, #134 ) ) ;
#392 = ADVANCED_FACE ( 'NONE', ( #52 ), #53, .T. ) ;
#393 = EDGE_CURVE ( 'NONE', #317, #7, #60, .T. ) ;
#394 = ORIENTED_EDGE ( 'NONE', *, *, #216, .T. ) ;
ENDSEC;
END-ISO-10303-21;
