ISO-10303-21;
HEADER;
FILE_DESCRIPTION(('STEP AP214'),'1');
FILE_NAME('C:\Users\felix\Desktop\test.stp','2008-11-15T17:36:35',('felix'),(' '),'XStep 1.0','ACIS InterOp Converter 2009',' ');
FILE_SCHEMA(('automotive_design'));
ENDSEC;
DATA;
#1=MECHANICAL_DESIGN_GEOMETRIC_PRESENTATION_REPRESENTATION(' ',(#14,#15,#16,#17,#18,#19,#20,#21,#22,#23,#24,#25,#26,#27,#28,#29,#30),#10);
#2=PRODUCT_DEFINITION_CONTEXT('',#31,'design');
#3=APPLICATION_PROTOCOL_DEFINITION('INTERNATIONAL STANDARD','automotive_design',1994,#31);
#4=PRODUCT_CATEGORY_RELATIONSHIP('NONE','NONE',#32,#33);
#5=SHAPE_DEFINITION_REPRESENTATION(#34,#35);
#6=PRODUCT_DEFINITION_CONTEXT('',#36,'design');
#7=APPLICATION_PROTOCOL_DEFINITION('INTERNATIONAL STANDARD','automotive_design',1994,#36);
#8=PRODUCT_CATEGORY_RELATIONSHIP('NONE','NONE',#37,#38);
#9=SHAPE_DEFINITION_REPRESENTATION(#39,#40);
#10= (GEOMETRIC_REPRESENTATION_CONTEXT(3)GLOBAL_UNCERTAINTY_ASSIGNED_CONTEXT((#43))GLOBAL_UNIT_ASSIGNED_CONTEXT((#45,#46,#47))REPRESENTATION_CONTEXT('NONE','WORKSPACE'));
#14=STYLED_ITEM('',(#49),#50);
#15=STYLED_ITEM('',(#51),#52);
#16=STYLED_ITEM('',(#53),#54);
#17=STYLED_ITEM('',(#55),#56);
#18=STYLED_ITEM('',(#57),#58);
#19=STYLED_ITEM('',(#59),#60);
#20=STYLED_ITEM('',(#61),#62);
#21=STYLED_ITEM('',(#63),#64);
#22=STYLED_ITEM('',(#65),#66);
#23=STYLED_ITEM('',(#67),#68);
#24=STYLED_ITEM('',(#69),#70);
#25=STYLED_ITEM('',(#71),#72);
#26=STYLED_ITEM('',(#73),#74);
#27=STYLED_ITEM('',(#75),#76);
#28=STYLED_ITEM('',(#77),#78);
#29=STYLED_ITEM('',(#79),#80);
#30=STYLED_ITEM('',(#81),#82);
#31=APPLICATION_CONTEXT(' ');
#32=PRODUCT_CATEGORY('part','NONE');
#33=PRODUCT_RELATED_PRODUCT_CATEGORY('detail',' ',(#83));
#34=PRODUCT_DEFINITION_SHAPE('NONE','NONE',#84);
#35=ADVANCED_BREP_SHAPE_REPRESENTATION('component1|solid1',(#56,#85),#10);
#36=APPLICATION_CONTEXT(' ');
#37=PRODUCT_CATEGORY('part','NONE');
#38=PRODUCT_RELATED_PRODUCT_CATEGORY('detail',' ',(#86));
#39=PRODUCT_DEFINITION_SHAPE('NONE','NONE',#87);
#40=ADVANCED_BREP_SHAPE_REPRESENTATION('component1|solid1_1',(#52,#88),#10);
#43=UNCERTAINTY_MEASURE_WITH_UNIT(LENGTH_MEASURE(1.0E-006),#45,'','');
#45= (CONVERSION_BASED_UNIT('METRE',#91)LENGTH_UNIT()NAMED_UNIT(#94));
#46= (NAMED_UNIT(#96)PLANE_ANGLE_UNIT()SI_UNIT($,.RADIAN.));
#47= (NAMED_UNIT(#96)SOLID_ANGLE_UNIT()SI_UNIT($,.STERADIAN.));
#49=PRESENTATION_STYLE_ASSIGNMENT((#102));
#50=ADVANCED_FACE('',(#103),#104,.F.);
#51=PRESENTATION_STYLE_ASSIGNMENT((#105));
#52=MANIFOLD_SOLID_BREP('component1|solid1_1',#106);
#53=PRESENTATION_STYLE_ASSIGNMENT((#107));
#54=ADVANCED_FACE('',(#108),#109,.T.);
#55=PRESENTATION_STYLE_ASSIGNMENT((#110));
#56=MANIFOLD_SOLID_BREP('component1|solid1',#111);
#57=PRESENTATION_STYLE_ASSIGNMENT((#112));
#58=ADVANCED_FACE('',(#113),#114,.F.);
#59=PRESENTATION_STYLE_ASSIGNMENT((#115));
#60=ADVANCED_FACE('',(#116),#117,.T.);
#61=PRESENTATION_STYLE_ASSIGNMENT((#118));
#62=ADVANCED_FACE('',(#119),#120,.F.);
#63=PRESENTATION_STYLE_ASSIGNMENT((#121));
#64=ADVANCED_FACE('',(#122),#123,.F.);
#65=PRESENTATION_STYLE_ASSIGNMENT((#124));
#66=ADVANCED_FACE('',(#125),#126,.F.);
#67=PRESENTATION_STYLE_ASSIGNMENT((#127));
#68=ADVANCED_FACE('',(#128),#129,.F.);
#69=PRESENTATION_STYLE_ASSIGNMENT((#130));
#70=ADVANCED_FACE('',(#131),#132,.T.);
#71=PRESENTATION_STYLE_ASSIGNMENT((#133));
#72=ADVANCED_FACE('',(#134),#135,.F.);
#73=PRESENTATION_STYLE_ASSIGNMENT((#136));
#74=ADVANCED_FACE('',(#137),#138,.F.);
#75=PRESENTATION_STYLE_ASSIGNMENT((#139));
#76=ADVANCED_FACE('',(#140),#141,.F.);
#77=PRESENTATION_STYLE_ASSIGNMENT((#142));
#78=ADVANCED_FACE('',(#143),#144,.F.);
#79=PRESENTATION_STYLE_ASSIGNMENT((#145));
#80=ADVANCED_FACE('',(#146),#147,.T.);
#81=PRESENTATION_STYLE_ASSIGNMENT((#148));
#82=ADVANCED_FACE('',(#149),#150,.T.);
#83=PRODUCT('component1|solid1','component1|solid1','PART-component1|solid1-DESC',(#151));
#84=PRODUCT_DEFINITION('NONE','NONE',#152,#2);
#85=AXIS2_PLACEMENT_3D('',#153,#154,#155);
#86=PRODUCT('component1|solid1_1','component1|solid1_1','PART-component1|solid1_1-DESC',(#156));
#87=PRODUCT_DEFINITION('NONE','NONE',#157,#6);
#88=AXIS2_PLACEMENT_3D('',#158,#159,#160);
#91=LENGTH_MEASURE_WITH_UNIT(LENGTH_MEASURE(1.0),#161);
#94=DIMENSIONAL_EXPONENTS(1.0,0.0,0.0,0.0,0.0,0.0,0.0);
#96=DIMENSIONAL_EXPONENTS(0.0,0.0,0.0,0.0,0.0,0.0,0.0);
#102=SURFACE_STYLE_USAGE(.BOTH.,#162);
#103=FACE_OUTER_BOUND('',#163,.T.);
#104=PLANE('',#164);
#105=SURFACE_STYLE_USAGE(.BOTH.,#165);
#106=CLOSED_SHELL('',(#60,#80,#54,#68,#82,#64,#76,#72,#58));
#107=SURFACE_STYLE_USAGE(.BOTH.,#166);
#108=FACE_OUTER_BOUND('',#167,.T.);
#109=PLANE('',#168);
#110=SURFACE_STYLE_USAGE(.BOTH.,#169);
#111=CLOSED_SHELL('',(#70,#66,#62,#74,#50,#78));
#112=SURFACE_STYLE_USAGE(.BOTH.,#170);
#113=FACE_OUTER_BOUND('',#171,.T.);
#114=PLANE('',#172);
#115=SURFACE_STYLE_USAGE(.BOTH.,#173);
#116=FACE_OUTER_BOUND('',#174,.T.);
#117=PLANE('',#175);
#118=SURFACE_STYLE_USAGE(.BOTH.,#176);
#119=FACE_OUTER_BOUND('',#177,.T.);
#120=PLANE('',#178);
#121=SURFACE_STYLE_USAGE(.BOTH.,#179);
#122=FACE_OUTER_BOUND('',#180,.T.);
#123=PLANE('',#181);
#124=SURFACE_STYLE_USAGE(.BOTH.,#182);
#125=FACE_OUTER_BOUND('',#183,.T.);
#126=PLANE('',#184);
#127=SURFACE_STYLE_USAGE(.BOTH.,#185);
#128=FACE_OUTER_BOUND('',#186,.T.);
#129=PLANE('',#187);
#130=SURFACE_STYLE_USAGE(.BOTH.,#188);
#131=FACE_OUTER_BOUND('',#189,.T.);
#132=PLANE('',#190);
#133=SURFACE_STYLE_USAGE(.BOTH.,#191);
#134=FACE_OUTER_BOUND('',#192,.T.);
#135=PLANE('',#193);
#136=SURFACE_STYLE_USAGE(.BOTH.,#194);
#137=FACE_OUTER_BOUND('',#195,.T.);
#138=PLANE('',#196);
#139=SURFACE_STYLE_USAGE(.BOTH.,#197);
#140=FACE_OUTER_BOUND('',#198,.T.);
#141=PLANE('',#199);
#142=SURFACE_STYLE_USAGE(.BOTH.,#200);
#143=FACE_OUTER_BOUND('',#201,.T.);
#144=PLANE('',#202);
#145=SURFACE_STYLE_USAGE(.BOTH.,#203);
#146=FACE_OUTER_BOUND('',#204,.T.);
#147=PLANE('',#205);
#148=SURFACE_STYLE_USAGE(.BOTH.,#206);
#149=FACE_OUTER_BOUND('',#207,.T.);
#150=PLANE('',#208);
#151=PRODUCT_CONTEXT('',#31,'mechanical');
#152=PRODUCT_DEFINITION_FORMATION_WITH_SPECIFIED_SOURCE(' ','NONE',#83,.NOT_KNOWN.);
#153=CARTESIAN_POINT('',(0.0,0.0,0.0));
#154=DIRECTION('',(0.0,0.0,1.0));
#155=DIRECTION('',(1.0,0.0,0.0));
#156=PRODUCT_CONTEXT('',#36,'mechanical');
#157=PRODUCT_DEFINITION_FORMATION_WITH_SPECIFIED_SOURCE(' ','NONE',#86,.NOT_KNOWN.);
#158=CARTESIAN_POINT('',(0.0,0.0,0.0));
#159=DIRECTION('',(0.0,0.0,1.0));
#160=DIRECTION('',(1.0,0.0,0.0));
#161= (NAMED_UNIT(#94)LENGTH_UNIT()SI_UNIT($,.METRE.));
#162=SURFACE_SIDE_STYLE('',(#210));
#163=EDGE_LOOP('',(#211,#212,#213,#214));
#164=AXIS2_PLACEMENT_3D('',#215,#216,#217);
#165=SURFACE_SIDE_STYLE('',(#218));
#166=SURFACE_SIDE_STYLE('',(#219));
#167=EDGE_LOOP('',(#220,#221,#222,#223));
#168=AXIS2_PLACEMENT_3D('',#224,#225,#226);
#169=SURFACE_SIDE_STYLE('',(#227));
#170=SURFACE_SIDE_STYLE('',(#228));
#171=EDGE_LOOP('',(#229,#230,#231,#232));
#172=AXIS2_PLACEMENT_3D('',#233,#234,#235);
#173=SURFACE_SIDE_STYLE('',(#236));
#174=EDGE_LOOP('',(#237,#238,#239,#240));
#175=AXIS2_PLACEMENT_3D('',#241,#242,#243);
#176=SURFACE_SIDE_STYLE('',(#244));
#177=EDGE_LOOP('',(#245,#246,#247,#248));
#178=AXIS2_PLACEMENT_3D('',#249,#250,#251);
#179=SURFACE_SIDE_STYLE('',(#252));
#180=EDGE_LOOP('',(#253,#254,#255,#256));
#181=AXIS2_PLACEMENT_3D('',#257,#258,#259);
#182=SURFACE_SIDE_STYLE('',(#260));
#183=EDGE_LOOP('',(#261,#262,#263,#264));
#184=AXIS2_PLACEMENT_3D('',#265,#266,#267);
#185=SURFACE_SIDE_STYLE('',(#268));
#186=EDGE_LOOP('',(#269,#270,#271,#272,#273,#274));
#187=AXIS2_PLACEMENT_3D('',#275,#276,#277);
#188=SURFACE_SIDE_STYLE('',(#278));
#189=EDGE_LOOP('',(#279,#280,#281,#282));
#190=AXIS2_PLACEMENT_3D('',#283,#284,#285);
#191=SURFACE_SIDE_STYLE('',(#286));
#192=EDGE_LOOP('',(#287,#288,#289,#290));
#193=AXIS2_PLACEMENT_3D('',#291,#292,#293);
#194=SURFACE_SIDE_STYLE('',(#294));
#195=EDGE_LOOP('',(#295,#296,#297,#298));
#196=AXIS2_PLACEMENT_3D('',#299,#300,#301);
#197=SURFACE_SIDE_STYLE('',(#302));
#198=EDGE_LOOP('',(#303,#304,#305,#306,#307,#308));
#199=AXIS2_PLACEMENT_3D('',#309,#310,#311);
#200=SURFACE_SIDE_STYLE('',(#312));
#201=EDGE_LOOP('',(#313,#314,#315,#316));
#202=AXIS2_PLACEMENT_3D('',#317,#318,#319);
#203=SURFACE_SIDE_STYLE('',(#320));
#204=EDGE_LOOP('',(#321,#322,#323,#324));
#205=AXIS2_PLACEMENT_3D('',#325,#326,#327);
#206=SURFACE_SIDE_STYLE('',(#328));
#207=EDGE_LOOP('',(#329,#330,#331,#332,#333,#334));
#208=AXIS2_PLACEMENT_3D('',#335,#336,#337);
#210=SURFACE_STYLE_FILL_AREA(#338);
#211=ORIENTED_EDGE('',*,*,#339,.T.);
#212=ORIENTED_EDGE('',*,*,#340,.F.);
#213=ORIENTED_EDGE('',*,*,#341,.F.);
#214=ORIENTED_EDGE('',*,*,#342,.F.);
#215=CARTESIAN_POINT('',(-3.45,1.9,2.45));
#216=DIRECTION('',(0.0,-1.0,0.0));
#217=DIRECTION('',(0.0,0.0,-1.0));
#218=SURFACE_STYLE_FILL_AREA(#343);
#219=SURFACE_STYLE_FILL_AREA(#344);
#220=ORIENTED_EDGE('',*,*,#345,.F.);
#221=ORIENTED_EDGE('',*,*,#346,.F.);
#222=ORIENTED_EDGE('',*,*,#347,.T.);
#223=ORIENTED_EDGE('',*,*,#348,.T.);
#224=CARTESIAN_POINT('',(-1.1,0.1,2.45));
#225=DIRECTION('',(-1.0,0.0,0.0));
#226=DIRECTION('',(0.0,0.0,1.0));
#227=SURFACE_STYLE_FILL_AREA(#349);
#228=SURFACE_STYLE_FILL_AREA(#350);
#229=ORIENTED_EDGE('',*,*,#351,.T.);
#230=ORIENTED_EDGE('',*,*,#352,.F.);
#231=ORIENTED_EDGE('',*,*,#353,.F.);
#232=ORIENTED_EDGE('',*,*,#354,.F.);
#233=CARTESIAN_POINT('',(0.799999999999999,1.5,0.25));
#234=DIRECTION('',(-1.0,0.0,0.0));
#235=DIRECTION('',(0.0,0.0,1.0));
#236=SURFACE_STYLE_FILL_AREA(#355);
#237=ORIENTED_EDGE('',*,*,#356,.F.);
#238=ORIENTED_EDGE('',*,*,#348,.F.);
#239=ORIENTED_EDGE('',*,*,#357,.F.);
#240=ORIENTED_EDGE('',*,*,#358,.F.);
#241=CARTESIAN_POINT('',(-3.45,0.1,0.0));
#242=DIRECTION('',(0.0,0.0,1.0));
#243=DIRECTION('',(1.0,0.0,0.0));
#244=SURFACE_STYLE_FILL_AREA(#359);
#245=ORIENTED_EDGE('',*,*,#360,.T.);
#246=ORIENTED_EDGE('',*,*,#361,.F.);
#247=ORIENTED_EDGE('',*,*,#362,.F.);
#248=ORIENTED_EDGE('',*,*,#363,.F.);
#249=CARTESIAN_POINT('',(-3.45,-1.7,2.45));
#250=DIRECTION('',(0.0,1.0,0.0));
#251=DIRECTION('',(0.0,0.0,1.0));
#252=SURFACE_STYLE_FILL_AREA(#364);
#253=ORIENTED_EDGE('',*,*,#352,.T.);
#254=ORIENTED_EDGE('',*,*,#365,.T.);
#255=ORIENTED_EDGE('',*,*,#366,.T.);
#256=ORIENTED_EDGE('',*,*,#367,.T.);
#257=CARTESIAN_POINT('',(-1.55,1.5,-2.2));
#258=DIRECTION('',(0.0,0.0,1.0));
#259=DIRECTION('',(1.0,0.0,0.0));
#260=SURFACE_STYLE_FILL_AREA(#368);
#261=ORIENTED_EDGE('',*,*,#369,.T.);
#262=ORIENTED_EDGE('',*,*,#361,.T.);
#263=ORIENTED_EDGE('',*,*,#370,.T.);
#264=ORIENTED_EDGE('',*,*,#340,.T.);
#265=CARTESIAN_POINT('',(-3.45,0.1,0.0));
#266=DIRECTION('',(0.0,0.0,1.0));
#267=DIRECTION('',(1.0,0.0,0.0));
#268=SURFACE_STYLE_FILL_AREA(#371);
#269=ORIENTED_EDGE('',*,*,#358,.T.);
#270=ORIENTED_EDGE('',*,*,#372,.T.);
#271=ORIENTED_EDGE('',*,*,#373,.F.);
#272=ORIENTED_EDGE('',*,*,#374,.T.);
#273=ORIENTED_EDGE('',*,*,#366,.F.);
#274=ORIENTED_EDGE('',*,*,#375,.F.);
#275=CARTESIAN_POINT('',(-3.9,1.5,0.25));
#276=DIRECTION('',(1.0,0.0,0.0));
#277=DIRECTION('',(0.0,0.0,-1.0));
#278=SURFACE_STYLE_FILL_AREA(#376);
#279=ORIENTED_EDGE('',*,*,#377,.T.);
#280=ORIENTED_EDGE('',*,*,#342,.T.);
#281=ORIENTED_EDGE('',*,*,#378,.T.);
#282=ORIENTED_EDGE('',*,*,#363,.T.);
#283=CARTESIAN_POINT('',(-3.45,0.1,4.9));
#284=DIRECTION('',(0.0,0.0,1.0));
#285=DIRECTION('',(1.0,0.0,0.0));
#286=SURFACE_STYLE_FILL_AREA(#379);
#287=ORIENTED_EDGE('',*,*,#353,.T.);
#288=ORIENTED_EDGE('',*,*,#367,.F.);
#289=ORIENTED_EDGE('',*,*,#374,.F.);
#290=ORIENTED_EDGE('',*,*,#380,.F.);
#291=CARTESIAN_POINT('',(-1.55,3.3,0.25));
#292=DIRECTION('',(0.0,-1.0,0.0));
#293=DIRECTION('',(0.0,0.0,-1.0));
#294=SURFACE_STYLE_FILL_AREA(#381);
#295=ORIENTED_EDGE('',*,*,#341,.T.);
#296=ORIENTED_EDGE('',*,*,#370,.F.);
#297=ORIENTED_EDGE('',*,*,#360,.F.);
#298=ORIENTED_EDGE('',*,*,#378,.F.);
#299=CARTESIAN_POINT('',(-5.8,0.1,2.45));
#300=DIRECTION('',(1.0,0.0,0.0));
#301=DIRECTION('',(0.0,0.0,-1.0));
#302=SURFACE_STYLE_FILL_AREA(#382);
#303=ORIENTED_EDGE('',*,*,#356,.T.);
#304=ORIENTED_EDGE('',*,*,#375,.T.);
#305=ORIENTED_EDGE('',*,*,#365,.F.);
#306=ORIENTED_EDGE('',*,*,#351,.F.);
#307=ORIENTED_EDGE('',*,*,#383,.F.);
#308=ORIENTED_EDGE('',*,*,#345,.T.);
#309=CARTESIAN_POINT('',(-1.55,-0.3,0.25));
#310=DIRECTION('',(0.0,1.0,0.0));
#311=DIRECTION('',(0.0,0.0,1.0));
#312=SURFACE_STYLE_FILL_AREA(#384);
#313=ORIENTED_EDGE('',*,*,#362,.T.);
#314=ORIENTED_EDGE('',*,*,#369,.F.);
#315=ORIENTED_EDGE('',*,*,#339,.F.);
#316=ORIENTED_EDGE('',*,*,#377,.F.);
#317=CARTESIAN_POINT('',(-1.1,0.1,2.45));
#318=DIRECTION('',(-1.0,0.0,0.0));
#319=DIRECTION('',(0.0,0.0,1.0));
#320=SURFACE_STYLE_FILL_AREA(#385);
#321=ORIENTED_EDGE('',*,*,#372,.F.);
#322=ORIENTED_EDGE('',*,*,#357,.T.);
#323=ORIENTED_EDGE('',*,*,#347,.F.);
#324=ORIENTED_EDGE('',*,*,#386,.F.);
#325=CARTESIAN_POINT('',(-3.45,1.9,2.45));
#326=DIRECTION('',(0.0,-1.0,0.0));
#327=DIRECTION('',(0.0,0.0,-1.0));
#328=SURFACE_STYLE_FILL_AREA(#387);
#329=ORIENTED_EDGE('',*,*,#346,.T.);
#330=ORIENTED_EDGE('',*,*,#383,.T.);
#331=ORIENTED_EDGE('',*,*,#354,.T.);
#332=ORIENTED_EDGE('',*,*,#380,.T.);
#333=ORIENTED_EDGE('',*,*,#373,.T.);
#334=ORIENTED_EDGE('',*,*,#386,.T.);
#335=CARTESIAN_POINT('',(-1.55,1.5,2.7));
#336=DIRECTION('',(0.0,0.0,1.0));
#337=DIRECTION('',(1.0,0.0,0.0));
#338=FILL_AREA_STYLE('',(#388));
#339=EDGE_CURVE('',#389,#390,#391,.T.);
#340=EDGE_CURVE('',#392,#390,#393,.T.);
#341=EDGE_CURVE('',#394,#392,#395,.T.);
#342=EDGE_CURVE('',#389,#394,#396,.T.);
#343=FILL_AREA_STYLE('',(#397));
#344=FILL_AREA_STYLE('',(#398));
#345=EDGE_CURVE('',#399,#400,#401,.T.);
#346=EDGE_CURVE('',#402,#399,#403,.T.);
#347=EDGE_CURVE('',#402,#404,#405,.T.);
#348=EDGE_CURVE('',#404,#400,#406,.T.);
#349=FILL_AREA_STYLE('',(#407));
#350=FILL_AREA_STYLE('',(#408));
#351=EDGE_CURVE('',#409,#410,#411,.T.);
#352=EDGE_CURVE('',#412,#410,#413,.T.);
#353=EDGE_CURVE('',#414,#412,#415,.T.);
#354=EDGE_CURVE('',#409,#414,#416,.T.);
#355=FILL_AREA_STYLE('',(#417));
#356=EDGE_CURVE('',#400,#418,#419,.T.);
#357=EDGE_CURVE('',#420,#404,#421,.T.);
#358=EDGE_CURVE('',#418,#420,#422,.T.);
#359=FILL_AREA_STYLE('',(#423));
#360=EDGE_CURVE('',#424,#425,#426,.T.);
#361=EDGE_CURVE('',#427,#425,#428,.T.);
#362=EDGE_CURVE('',#429,#427,#430,.T.);
#363=EDGE_CURVE('',#424,#429,#431,.T.);
#364=FILL_AREA_STYLE('',(#432));
#365=EDGE_CURVE('',#410,#433,#434,.T.);
#366=EDGE_CURVE('',#433,#435,#436,.T.);
#367=EDGE_CURVE('',#435,#412,#437,.T.);
#368=FILL_AREA_STYLE('',(#438));
#369=EDGE_CURVE('',#390,#427,#439,.T.);
#370=EDGE_CURVE('',#425,#392,#440,.T.);
#371=FILL_AREA_STYLE('',(#441));
#372=EDGE_CURVE('',#420,#442,#443,.T.);
#373=EDGE_CURVE('',#444,#442,#445,.T.);
#374=EDGE_CURVE('',#444,#435,#446,.T.);
#375=EDGE_CURVE('',#418,#433,#447,.T.);
#376=FILL_AREA_STYLE('',(#448));
#377=EDGE_CURVE('',#429,#389,#449,.T.);
#378=EDGE_CURVE('',#394,#424,#450,.T.);
#379=FILL_AREA_STYLE('',(#451));
#380=EDGE_CURVE('',#414,#444,#452,.T.);
#381=FILL_AREA_STYLE('',(#453));
#382=FILL_AREA_STYLE('',(#454));
#383=EDGE_CURVE('',#399,#409,#455,.T.);
#384=FILL_AREA_STYLE('',(#456));
#385=FILL_AREA_STYLE('',(#457));
#386=EDGE_CURVE('',#442,#402,#458,.T.);
#387=FILL_AREA_STYLE('',(#459));
#388=FILL_AREA_STYLE_COLOUR('',#460);
#389=VERTEX_POINT('',#461);
#390=VERTEX_POINT('',#462);
#391=LINE('',#463,#464);
#392=VERTEX_POINT('',#465);
#393=LINE('',#466,#467);
#394=VERTEX_POINT('',#468);
#395=LINE('',#469,#470);
#396=LINE('',#471,#472);
#397=FILL_AREA_STYLE_COLOUR('',#473);
#398=FILL_AREA_STYLE_COLOUR('',#474);
#399=VERTEX_POINT('',#475);
#400=VERTEX_POINT('',#476);
#401=LINE('',#477,#478);
#402=VERTEX_POINT('',#479);
#403=LINE('',#480,#481);
#404=VERTEX_POINT('',#482);
#405=LINE('',#483,#484);
#406=LINE('',#485,#486);
#407=FILL_AREA_STYLE_COLOUR('',#487);
#408=FILL_AREA_STYLE_COLOUR('',#488);
#409=VERTEX_POINT('',#489);
#410=VERTEX_POINT('',#490);
#411=LINE('',#491,#492);
#412=VERTEX_POINT('',#493);
#413=LINE('',#494,#495);
#414=VERTEX_POINT('',#496);
#415=LINE('',#497,#498);
#416=LINE('',#499,#500);
#417=FILL_AREA_STYLE_COLOUR('',#501);
#418=VERTEX_POINT('',#502);
#419=LINE('',#503,#504);
#420=VERTEX_POINT('',#505);
#421=LINE('',#506,#507);
#422=LINE('',#508,#509);
#423=FILL_AREA_STYLE_COLOUR('',#510);
#424=VERTEX_POINT('',#511);
#425=VERTEX_POINT('',#512);
#426=LINE('',#513,#514);
#427=VERTEX_POINT('',#515);
#428=LINE('',#516,#517);
#429=VERTEX_POINT('',#518);
#430=LINE('',#519,#520);
#431=LINE('',#521,#522);
#432=FILL_AREA_STYLE_COLOUR('',#523);
#433=VERTEX_POINT('',#524);
#434=LINE('',#525,#526);
#435=VERTEX_POINT('',#527);
#436=LINE('',#528,#529);
#437=LINE('',#530,#531);
#438=FILL_AREA_STYLE_COLOUR('',#532);
#439=LINE('',#533,#534);
#440=LINE('',#535,#536);
#441=FILL_AREA_STYLE_COLOUR('',#537);
#442=VERTEX_POINT('',#538);
#443=LINE('',#539,#540);
#444=VERTEX_POINT('',#541);
#445=LINE('',#542,#543);
#446=LINE('',#544,#545);
#447=LINE('',#546,#547);
#448=FILL_AREA_STYLE_COLOUR('',#548);
#449=LINE('',#549,#550);
#450=LINE('',#551,#552);
#451=FILL_AREA_STYLE_COLOUR('',#553);
#452=LINE('',#554,#555);
#453=FILL_AREA_STYLE_COLOUR('',#556);
#454=FILL_AREA_STYLE_COLOUR('',#557);
#455=LINE('',#558,#559);
#456=FILL_AREA_STYLE_COLOUR('',#560);
#457=FILL_AREA_STYLE_COLOUR('',#561);
#458=LINE('',#562,#563);
#459=FILL_AREA_STYLE_COLOUR('',#564);
#460=COLOUR_RGB('',0.5,0.800000011920929,1.0);
#461=CARTESIAN_POINT('',(-1.1,1.9,4.9));
#462=CARTESIAN_POINT('',(-1.1,1.9,0.0));
#463=CARTESIAN_POINT('',(-1.1,1.9,2.45));
#464=VECTOR('',#565,1.0);
#465=CARTESIAN_POINT('',(-5.8,1.9,0.0));
#466=CARTESIAN_POINT('',(-3.45,1.9,0.0));
#467=VECTOR('',#566,1.0);
#468=CARTESIAN_POINT('',(-5.8,1.9,4.9));
#469=CARTESIAN_POINT('',(-5.8,1.9,2.45));
#470=VECTOR('',#567,1.0);
#471=CARTESIAN_POINT('',(-3.45,1.9,4.9));
#472=VECTOR('',#568,1.0);
#473=COLOUR_RGB('',0.5,0.800000011920929,1.0);
#474=COLOUR_RGB('',0.5,0.800000011920929,1.0);
#475=CARTESIAN_POINT('',(-1.1,-0.3,2.7));
#476=CARTESIAN_POINT('',(-1.1,-0.3,0.0));
#477=CARTESIAN_POINT('',(-1.1,-0.3,1.35));
#478=VECTOR('',#569,1.0);
#479=CARTESIAN_POINT('',(-1.1,1.9,2.7));
#480=CARTESIAN_POINT('',(-1.1,0.8,2.7));
#481=VECTOR('',#570,1.0);
#482=CARTESIAN_POINT('',(-1.1,1.9,0.0));
#483=CARTESIAN_POINT('',(-1.1,1.9,2.45));
#484=VECTOR('',#571,1.0);
#485=CARTESIAN_POINT('',(-1.1,0.1,0.0));
#486=VECTOR('',#572,1.0);
#487=COLOUR_RGB('',0.5,0.800000011920929,1.0);
#488=COLOUR_RGB('',0.5,0.800000011920929,1.0);
#489=CARTESIAN_POINT('',(0.799999999999999,-0.3,2.7));
#490=CARTESIAN_POINT('',(0.799999999999999,-0.3,-2.2));
#491=CARTESIAN_POINT('',(0.799999999999999,-0.3,0.25));
#492=VECTOR('',#573,1.0);
#493=CARTESIAN_POINT('',(0.799999999999999,3.3,-2.2));
#494=CARTESIAN_POINT('',(0.799999999999999,1.5,-2.2));
#495=VECTOR('',#574,1.0);
#496=CARTESIAN_POINT('',(0.799999999999999,3.3,2.7));
#497=CARTESIAN_POINT('',(0.799999999999999,3.3,0.25));
#498=VECTOR('',#575,1.0);
#499=CARTESIAN_POINT('',(0.799999999999999,1.5,2.7));
#500=VECTOR('',#576,1.0);
#501=COLOUR_RGB('',0.5,0.800000011920929,1.0);
#502=CARTESIAN_POINT('',(-3.9,-0.3,0.0));
#503=CARTESIAN_POINT('',(-2.5,-0.3,0.0));
#504=VECTOR('',#577,1.0);
#505=CARTESIAN_POINT('',(-3.9,1.9,0.0));
#506=CARTESIAN_POINT('',(-3.45,1.9,0.0));
#507=VECTOR('',#578,1.0);
#508=CARTESIAN_POINT('',(-3.9,0.8,0.0));
#509=VECTOR('',#579,1.0);
#510=COLOUR_RGB('',0.5,0.800000011920929,1.0);
#511=CARTESIAN_POINT('',(-5.8,-1.7,4.9));
#512=CARTESIAN_POINT('',(-5.8,-1.7,0.0));
#513=CARTESIAN_POINT('',(-5.8,-1.7,2.45));
#514=VECTOR('',#580,1.0);
#515=CARTESIAN_POINT('',(-1.1,-1.7,0.0));
#516=CARTESIAN_POINT('',(-3.45,-1.7,0.0));
#517=VECTOR('',#581,1.0);
#518=CARTESIAN_POINT('',(-1.1,-1.7,4.9));
#519=CARTESIAN_POINT('',(-1.1,-1.7,2.45));
#520=VECTOR('',#582,1.0);
#521=CARTESIAN_POINT('',(-3.45,-1.7,4.9));
#522=VECTOR('',#583,1.0);
#523=COLOUR_RGB('',0.5,0.800000011920929,1.0);
#524=CARTESIAN_POINT('',(-3.9,-0.3,-2.2));
#525=CARTESIAN_POINT('',(-1.55,-0.3,-2.2));
#526=VECTOR('',#584,1.0);
#527=CARTESIAN_POINT('',(-3.9,3.3,-2.2));
#528=CARTESIAN_POINT('',(-3.9,1.5,-2.2));
#529=VECTOR('',#585,1.0);
#530=CARTESIAN_POINT('',(-1.55,3.3,-2.2));
#531=VECTOR('',#586,1.0);
#532=COLOUR_RGB('',0.5,0.800000011920929,1.0);
#533=CARTESIAN_POINT('',(-1.1,0.1,0.0));
#534=VECTOR('',#587,1.0);
#535=CARTESIAN_POINT('',(-5.8,0.1,0.0));
#536=VECTOR('',#588,1.0);
#537=COLOUR_RGB('',0.5,0.800000011920929,1.0);
#538=CARTESIAN_POINT('',(-3.9,1.9,2.7));
#539=CARTESIAN_POINT('',(-3.9,1.9,1.35));
#540=VECTOR('',#589,1.0);
#541=CARTESIAN_POINT('',(-3.9,3.3,2.7));
#542=CARTESIAN_POINT('',(-3.9,1.5,2.7));
#543=VECTOR('',#590,1.0);
#544=CARTESIAN_POINT('',(-3.9,3.3,0.25));
#545=VECTOR('',#591,1.0);
#546=CARTESIAN_POINT('',(-3.9,-0.3,0.25));
#547=VECTOR('',#592,1.0);
#548=COLOUR_RGB('',0.5,0.800000011920929,1.0);
#549=CARTESIAN_POINT('',(-1.1,0.1,4.9));
#550=VECTOR('',#593,1.0);
#551=CARTESIAN_POINT('',(-5.8,0.1,4.9));
#552=VECTOR('',#594,1.0);
#553=COLOUR_RGB('',0.5,0.800000011920929,1.0);
#554=CARTESIAN_POINT('',(-1.55,3.3,2.7));
#555=VECTOR('',#595,1.0);
#556=COLOUR_RGB('',0.5,0.800000011920929,1.0);
#557=COLOUR_RGB('',0.5,0.800000011920929,1.0);
#558=CARTESIAN_POINT('',(-1.55,-0.3,2.7));
#559=VECTOR('',#596,1.0);
#560=COLOUR_RGB('',0.5,0.800000011920929,1.0);
#561=COLOUR_RGB('',0.5,0.800000011920929,1.0);
#562=CARTESIAN_POINT('',(-2.5,1.9,2.7));
#563=VECTOR('',#597,1.0);
#564=COLOUR_RGB('',0.5,0.800000011920929,1.0);
#565=DIRECTION('',(0.0,0.0,-1.0));
#566=DIRECTION('',(1.0,0.0,0.0));
#567=DIRECTION('',(0.0,0.0,-1.0));
#568=DIRECTION('',(-1.0,0.0,0.0));
#569=DIRECTION('',(0.0,0.0,-1.0));
#570=DIRECTION('',(0.0,-1.0,0.0));
#571=DIRECTION('',(0.0,0.0,-1.0));
#572=DIRECTION('',(0.0,-1.0,0.0));
#573=DIRECTION('',(0.0,0.0,-1.0));
#574=DIRECTION('',(0.0,-1.0,0.0));
#575=DIRECTION('',(0.0,0.0,-1.0));
#576=DIRECTION('',(0.0,1.0,0.0));
#577=DIRECTION('',(-1.0,0.0,0.0));
#578=DIRECTION('',(1.0,0.0,0.0));
#579=DIRECTION('',(0.0,1.0,0.0));
#580=DIRECTION('',(0.0,0.0,-1.0));
#581=DIRECTION('',(-1.0,0.0,0.0));
#582=DIRECTION('',(0.0,0.0,-1.0));
#583=DIRECTION('',(1.0,0.0,0.0));
#584=DIRECTION('',(-1.0,0.0,0.0));
#585=DIRECTION('',(0.0,1.0,0.0));
#586=DIRECTION('',(1.0,0.0,0.0));
#587=DIRECTION('',(0.0,-1.0,0.0));
#588=DIRECTION('',(0.0,1.0,0.0));
#589=DIRECTION('',(-0.0,0.0,1.0));
#590=DIRECTION('',(0.0,-1.0,0.0));
#591=DIRECTION('',(0.0,0.0,-1.0));
#592=DIRECTION('',(0.0,0.0,-1.0));
#593=DIRECTION('',(0.0,1.0,0.0));
#594=DIRECTION('',(0.0,-1.0,0.0));
#595=DIRECTION('',(-1.0,0.0,0.0));
#596=DIRECTION('',(1.0,0.0,0.0));
#597=DIRECTION('',(1.0,0.0,-0.0));
#598=PRESENTATION_LAYER_ASSIGNMENT('Vacuum','',(#56,#52));
ENDSEC;
END-ISO-10303-21;
