ISO-10303-21;
HEADER;
FILE_DESCRIPTION (( 'STEP AP203' ),
    '1' );
FILE_NAME ('Bloc1_step203.STEP',
    '2008-03-06T12:56:24',
    ( 'Family' ),
    ( 'Guy' ),
    'SwSTEP 2.0',
    'SolidWorks 2002296',
    '' );
FILE_SCHEMA (( 'CONFIG_CONTROL_DESIGN' ));
ENDSEC;

DATA;
#1 = CLOSED_SHELL ( 'NONE', ( #170, #8, #13, #11 ) ) ;
#2 = EDGE_LOOP ( 'NONE', ( #14, #166, #172, #164 ) ) ;
#3 = EDGE_CURVE ( 'NONE', #175, #110, #18, .T. ) ;
#4 = ORIENTED_EDGE ( 'NONE', *, *, #7, .F. ) ;
#5 = ORIENTED_EDGE ( 'NONE', *, *, #10, .T. ) ;
#6 = ORIENTED_EDGE ( 'NONE', *, *, #15, .T. ) ;
#7 = EDGE_CURVE ( 'NONE', #143, #165, #22, .T. ) ;
#8 = ADVANCED_FACE ( 'NONE', ( #26 ), #27, .T. ) ;
#9 = ORIENTED_EDGE ( 'NONE', *, *, #3, .T. ) ;
#10 = EDGE_CURVE ( 'NONE', #143, #175, #33, .T. ) ;
#11 = ADVANCED_FACE ( 'NONE', ( #38 ), #39, .F. ) ;
#12 = ORIENTED_EDGE ( 'NONE', *, *, #173, .T. ) ;
#13 = ADVANCED_FACE ( 'NONE', ( #44 ), #45, .F. ) ;
#14 = ORIENTED_EDGE ( 'NONE', *, *, #168, .T. ) ;
#15 = EDGE_CURVE ( 'NONE', #165, #110, #50, .T. ) ;
#16 = ORIENTED_EDGE ( 'NONE', *, *, #10, .F. ) ;
#17 = CARTESIAN_POINT ( 'NONE',  ( 0.0000000000000000000, 0.0000000000000000000, 0.02470000000000000000 ) ) ;
#18 = LINE ( 'NONE', #19, #20 ) ;
#19 = CARTESIAN_POINT ( 'NONE',  ( 0.0000000000000000000, 0.06666489925768823200, 0.02470000000000000000 ) ) ;
#20 = VECTOR ( 'NONE', #21, 1.000000000000000000 ) ;
#21 = DIRECTION ( 'NONE',  ( 0.0000000000000000000, 1.000000000000000000, 0.0000000000000000000 ) ) ;
#22 = LINE ( 'NONE', #23, #24 ) ;
#23 = CARTESIAN_POINT ( 'NONE',  ( 3.024777693941271800E-018, 0.06666489925768823200, -0.02470000000000000000 ) ) ;
#24 = VECTOR ( 'NONE', #25, 1.000000000000000000 ) ;
#25 = DIRECTION ( 'NONE',  ( 0.0000000000000000000, 1.000000000000000000, 0.0000000000000000000 ) ) ;
#26 = FACE_OUTER_BOUND ( 'NONE', #2, .T. ) ;
#27 = CYLINDRICAL_SURFACE ( 'NONE', #28, 0.02470000000000000000 ) ;
#28 = AXIS2_PLACEMENT_3D ( 'NONE', #29, #30, #31 ) ;
#29 = CARTESIAN_POINT ( 'NONE',  ( 0.0000000000000000000, 0.06666489925768823200, 0.0000000000000000000 ) ) ;
#30 = DIRECTION ( 'NONE',  ( 0.0000000000000000000, 1.000000000000000000, 0.0000000000000000000 ) ) ;
#31 = DIRECTION ( 'NONE',  ( 0.0000000000000000000, 0.0000000000000000000, 1.000000000000000000 ) ) ;
#32 = EDGE_LOOP ( 'NONE', ( #109, #16 ) ) ;
#33 = CIRCLE ( 'NONE', #34, 0.02470000000000000000 ) ;
#34 = AXIS2_PLACEMENT_3D ( 'NONE', #35, #36, #37 ) ;
#35 = CARTESIAN_POINT ( 'NONE',  ( 0.0000000000000000000, 0.0000000000000000000, 0.0000000000000000000 ) ) ;
#36 = DIRECTION ( 'NONE',  ( 0.0000000000000000000, 1.000000000000000000, 0.0000000000000000000 ) ) ;
#37 = DIRECTION ( 'NONE',  ( 0.0000000000000000000, 0.0000000000000000000, 1.000000000000000000 ) ) ;
#38 = FACE_OUTER_BOUND ( 'NONE', #171, .T. ) ;
#39 = PLANE ( 'NONE',  #40 ) ;
#40 = AXIS2_PLACEMENT_3D ( 'NONE', #41, #42, #43 ) ;
#41 = CARTESIAN_POINT ( 'NONE',  ( 0.0000000000000000000, 0.05000000000000000300, 0.0000000000000000000 ) ) ;
#42 = DIRECTION ( 'NONE',  ( 0.0000000000000000000, -1.000000000000000000, 0.0000000000000000000 ) ) ;
#43 = DIRECTION ( 'NONE',  ( 0.0000000000000000000, 0.0000000000000000000, -1.000000000000000000 ) ) ;
#44 = FACE_OUTER_BOUND ( 'NONE', #32, .T. ) ;
#45 = PLANE ( 'NONE',  #46 ) ;
#46 = AXIS2_PLACEMENT_3D ( 'NONE', #47, #48, #49 ) ;
#47 = CARTESIAN_POINT ( 'NONE',  ( 0.0000000000000000000, 0.0000000000000000000, 0.0000000000000000000 ) ) ;
#48 = DIRECTION ( 'NONE',  ( 0.0000000000000000000, 1.000000000000000000, 0.0000000000000000000 ) ) ;
#49 = DIRECTION ( 'NONE',  ( 0.0000000000000000000, 0.0000000000000000000, 1.000000000000000000 ) ) ;
#50 = CIRCLE ( 'NONE', #51, 0.02470000000000000000 ) ;
#51 = AXIS2_PLACEMENT_3D ( 'NONE', #52, #53, #54 ) ;
#52 = CARTESIAN_POINT ( 'NONE',  ( 0.0000000000000000000, 0.05000000000000000300, 0.0000000000000000000 ) ) ;
#53 = DIRECTION ( 'NONE',  ( 0.0000000000000000000, 1.000000000000000000, 0.0000000000000000000 ) ) ;
#54 = DIRECTION ( 'NONE',  ( 0.0000000000000000000, 0.0000000000000000000, 1.000000000000000000 ) ) ;
#55 = CARTESIAN_POINT ( 'NONE',  ( 0.0000000000000000000, 0.05000000000000000300, 0.02470000000000000000 ) ) ;
#56 = CARTESIAN_POINT ( 'NONE',  ( 3.024777693941271800E-018, 0.0000000000000000000, -0.02470000000000000000 ) ) ;
#57 = CARTESIAN_POINT ( 'NONE',  ( 3.024777693941271800E-018, 0.05000000000000000300, -0.02470000000000000000 ) ) ;
#58 = CIRCLE ( 'NONE', #59, 0.02470000000000000000 ) ;
#59 = AXIS2_PLACEMENT_3D ( 'NONE', #60, #61, #62 ) ;
#60 = CARTESIAN_POINT ( 'NONE',  ( 0.0000000000000000000, 0.0000000000000000000, 0.0000000000000000000 ) ) ;
#61 = DIRECTION ( 'NONE',  ( 0.0000000000000000000, 1.000000000000000000, 0.0000000000000000000 ) ) ;
#62 = DIRECTION ( 'NONE',  ( 0.0000000000000000000, 0.0000000000000000000, 1.000000000000000000 ) ) ;
#63 = FACE_OUTER_BOUND ( 'NONE', #167, .T. ) ;
#64 = CYLINDRICAL_SURFACE ( 'NONE', #65, 0.02470000000000000000 ) ;
#65 = AXIS2_PLACEMENT_3D ( 'NONE', #66, #67, #68 ) ;
#66 = CARTESIAN_POINT ( 'NONE',  ( 0.0000000000000000000, 0.06666489925768823200, 0.0000000000000000000 ) ) ;
#67 = DIRECTION ( 'NONE',  ( 0.0000000000000000000, 1.000000000000000000, 0.0000000000000000000 ) ) ;
#68 = DIRECTION ( 'NONE',  ( 0.0000000000000000000, 0.0000000000000000000, 1.000000000000000000 ) ) ;
#69 = CIRCLE ( 'NONE', #70, 0.02470000000000000000 ) ;
#70 = AXIS2_PLACEMENT_3D ( 'NONE', #71, #72, #73 ) ;
#71 = CARTESIAN_POINT ( 'NONE',  ( 0.0000000000000000000, 0.05000000000000000300, 0.0000000000000000000 ) ) ;
#72 = DIRECTION ( 'NONE',  ( 0.0000000000000000000, 1.000000000000000000, 0.0000000000000000000 ) ) ;
#73 = DIRECTION ( 'NONE',  ( 0.0000000000000000000, 0.0000000000000000000, 1.000000000000000000 ) ) ;
#74 =( LENGTH_UNIT ( ) NAMED_UNIT ( * ) SI_UNIT ( $, .METRE. ) );
#75 =( NAMED_UNIT ( * ) PLANE_ANGLE_UNIT ( ) SI_UNIT ( $, .RADIAN. ) );
#76 =( NAMED_UNIT ( * ) SI_UNIT ( $, .STERADIAN. ) SOLID_ANGLE_UNIT ( ) );
#77 = UNCERTAINTY_MEASURE_WITH_UNIT (LENGTH_MEASURE( 1.000000000000000100E-005 ), #74, 'distance_accuracy_value', 'NONE');
#78 =( GEOMETRIC_REPRESENTATION_CONTEXT ( 3 ) GLOBAL_UNCERTAINTY_ASSIGNED_CONTEXT ( ( #77 ) ) GLOBAL_UNIT_ASSIGNED_CONTEXT ( ( #74, #75, #76 ) ) REPRESENTATION_CONTEXT ( 'NONE', 'WORKASPACE' ) );
#79 = ADVANCED_BREP_SHAPE_REPRESENTATION ( 'Bloc1_step203', ( #169, #80 ), #78 ) ;
#80 = AXIS2_PLACEMENT_3D ( 'NONE', #81, #82, #83 ) ;
#81 = CARTESIAN_POINT ( 'NONE',  ( 0.0000000000000000000, 0.0000000000000000000, 0.0000000000000000000 ) ) ;
#82 = DIRECTION ( 'NONE',  ( 0.0000000000000000000, 0.0000000000000000000, 1.000000000000000000 ) ) ;
#83 = DIRECTION ( 'NONE',  ( 1.000000000000000000, 0.0000000000000000000, 0.0000000000000000000 ) ) ;
#84 = APPLICATION_CONTEXT ( 'configuration controlled 3d designs of mechanical parts and assemblies' ) ;
#85 = APPLICATION_PROTOCOL_DEFINITION ( 'international standard', 'config_control_design', 1994, #84 ) ;
#86 = MECHANICAL_CONTEXT ( 'NONE', #84, 'mechanical' ) ;
#87 = PRODUCT ( 'Bloc1_step203', 'Bloc1_step203', '', ( #86 ) ) ;
#88 = PERSON ( 'UNSPECIFIED', 'UNSPECIFIED', 'UNSPECIFIED', ('UNSPECIFIED'), ('UNSPECIFIED'), ('UNSPECIFIED') ) ;
#89 = ORGANIZATION ( 'UNSPECIFIED', 'UNSPECIFIED', '' ) ;
#90 = PERSON_AND_ORGANIZATION ( #88, #89 ) ;
#91 = PERSON_AND_ORGANIZATION_ROLE ( 'design_owner' ) ;
#92 = CC_DESIGN_PERSON_AND_ORGANIZATION_ASSIGNMENT ( #90, #91, ( #87 ) ) ;
#93 = APPLICATION_CONTEXT ( 'configuration controlled 3d designs of mechanical parts and assemblies' ) ;
#94 = APPLICATION_PROTOCOL_DEFINITION ( 'international standard', 'config_control_design', 1994, #93 ) ;
#95 = DESIGN_CONTEXT ( 'detailed design', #93, 'design' ) ;
#96 = PRODUCT_DEFINITION ( 'UNKNOWN', '', #119, #95 ) ;
#97 = PERSON_AND_ORGANIZATION ( #88, #89 ) ;
#98 = APPROVAL_STATUS ( 'not_yet_approved' ) ;
#99 = APPROVAL ( #98, 'UNSPECIFIED' ) ;
#100 = APPROVAL_ROLE ( '' ) ;
#101 = APPROVAL_PERSON_ORGANIZATION ( #97, #99, #100 ) ;
#102 = COORDINATED_UNIVERSAL_TIME_OFFSET ( 1, 0, .AHEAD. ) ;
#103 = LOCAL_TIME ( 13, 56, 24.00000000000000000, #102 ) ;
#104 = CALENDAR_DATE ( 2008, 6, 3 ) ;
#105 = DATE_AND_TIME ( #104, #103 ) ;
#106 = APPROVAL_DATE_TIME ( #105, #99 ) ;
#107 = CC_DESIGN_APPROVAL ( #99, ( #96 ) ) ;
#108 = PERSON_AND_ORGANIZATION ( #88, #89 ) ;
#109 = ORIENTED_EDGE ( 'NONE', *, *, #168, .F. ) ;
#110 = VERTEX_POINT ( 'NONE', #55 ) ;
#111 = PERSON_AND_ORGANIZATION_ROLE ( 'creator' ) ;
#112 = CC_DESIGN_PERSON_AND_ORGANIZATION_ASSIGNMENT ( #108, #111, ( #96 ) ) ;
#113 = COORDINATED_UNIVERSAL_TIME_OFFSET ( 1, 0, .AHEAD. ) ;
#114 = LOCAL_TIME ( 13, 56, 24.00000000000000000, #113 ) ;
#115 = CALENDAR_DATE ( 2008, 6, 3 ) ;
#116 = DATE_AND_TIME ( #115, #114 ) ;
#117 = DATE_TIME_ROLE ( 'creation_date' ) ;
#118 = CC_DESIGN_DATE_AND_TIME_ASSIGNMENT ( #116, #117, ( #96 ) ) ;
#119 = PRODUCT_DEFINITION_FORMATION_WITH_SPECIFIED_SOURCE ( 'ANY', '', #87, .NOT_KNOWN. ) ;
#120 = PERSON_AND_ORGANIZATION ( #88, #89 ) ;
#121 = APPROVAL_STATUS ( 'not_yet_approved' ) ;
#122 = APPROVAL ( #121, 'UNSPECIFIED' ) ;
#123 = APPROVAL_ROLE ( '' ) ;
#124 = APPROVAL_PERSON_ORGANIZATION ( #120, #122, #123 ) ;
#125 = COORDINATED_UNIVERSAL_TIME_OFFSET ( 1, 0, .AHEAD. ) ;
#126 = LOCAL_TIME ( 13, 56, 24.00000000000000000, #125 ) ;
#127 = CALENDAR_DATE ( 2008, 6, 3 ) ;
#128 = DATE_AND_TIME ( #127, #126 ) ;
#129 = APPROVAL_DATE_TIME ( #128, #122 ) ;
#130 = CC_DESIGN_APPROVAL ( #122, ( #119 ) ) ;
#131 = PERSON_AND_ORGANIZATION ( #88, #89 ) ;
#132 = PERSON_AND_ORGANIZATION_ROLE ( 'creator' ) ;
#133 = CC_DESIGN_PERSON_AND_ORGANIZATION_ASSIGNMENT ( #131, #132, ( #119 ) ) ;
#134 = PERSON_AND_ORGANIZATION ( #88, #89 ) ;
#135 = PERSON_AND_ORGANIZATION_ROLE ( 'design_supplier' ) ;
#136 = CC_DESIGN_PERSON_AND_ORGANIZATION_ASSIGNMENT ( #134, #135, ( #119 ) ) ;
#137 = SECURITY_CLASSIFICATION_LEVEL ( 'unclassified' ) ;
#138 = SECURITY_CLASSIFICATION ( '', '', #137 ) ;
#139 = PERSON_AND_ORGANIZATION ( #88, #89 ) ;
#140 = PERSON_AND_ORGANIZATION_ROLE ( 'classification_officer' ) ;
#141 = CC_DESIGN_PERSON_AND_ORGANIZATION_ASSIGNMENT ( #139, #140, ( #138 ) ) ;
#142 = COORDINATED_UNIVERSAL_TIME_OFFSET ( 1, 0, .AHEAD. ) ;
#143 = VERTEX_POINT ( 'NONE', #56 ) ;
#144 = LOCAL_TIME ( 13, 56, 24.00000000000000000, #142 ) ;
#145 = CALENDAR_DATE ( 2008, 6, 3 ) ;
#146 = DATE_AND_TIME ( #145, #144 ) ;
#147 = DATE_TIME_ROLE ( 'classification_date' ) ;
#148 = CC_DESIGN_DATE_AND_TIME_ASSIGNMENT ( #146, #147, ( #138 ) ) ;
#149 = PERSON_AND_ORGANIZATION ( #88, #89 ) ;
#150 = APPROVAL_STATUS ( 'not_yet_approved' ) ;
#151 = APPROVAL ( #150, 'UNSPECIFIED' ) ;
#152 = APPROVAL_ROLE ( '' ) ;
#153 = APPROVAL_PERSON_ORGANIZATION ( #149, #151, #152 ) ;
#154 = COORDINATED_UNIVERSAL_TIME_OFFSET ( 1, 0, .AHEAD. ) ;
#155 = LOCAL_TIME ( 13, 56, 24.00000000000000000, #154 ) ;
#156 = CALENDAR_DATE ( 2008, 6, 3 ) ;
#157 = DATE_AND_TIME ( #156, #155 ) ;
#158 = APPROVAL_DATE_TIME ( #157, #151 ) ;
#159 = CC_DESIGN_APPROVAL ( #151, ( #138 ) ) ;
#160 = CC_DESIGN_SECURITY_CLASSIFICATION ( #138, ( #119 ) ) ;
#161 = PRODUCT_RELATED_PRODUCT_CATEGORY ( 'detail', '', ( #87 ) ) ;
#162 = PRODUCT_DEFINITION_SHAPE ( 'NONE', 'NONE',  #96 ) ;
#163 = SHAPE_DEFINITION_REPRESENTATION ( #162, #79 ) ;
#164 = ORIENTED_EDGE ( 'NONE', *, *, #3, .F. ) ;
#165 = VERTEX_POINT ( 'NONE', #57 ) ;
#166 = ORIENTED_EDGE ( 'NONE', *, *, #7, .T. ) ;
#167 = EDGE_LOOP ( 'NONE', ( #4, #5, #9, #174 ) ) ;
#168 = EDGE_CURVE ( 'NONE', #175, #143, #58, .T. ) ;
#169 = MANIFOLD_SOLID_BREP ( 'NONE', #1 ) ;
#170 = ADVANCED_FACE ( 'NONE', ( #63 ), #64, .T. ) ;
#171 = EDGE_LOOP ( 'NONE', ( #12, #6 ) ) ;
#172 = ORIENTED_EDGE ( 'NONE', *, *, #173, .F. ) ;
#173 = EDGE_CURVE ( 'NONE', #110, #165, #69, .T. ) ;
#174 = ORIENTED_EDGE ( 'NONE', *, *, #15, .F. ) ;
#175 = VERTEX_POINT ( 'NONE', #17 ) ;
ENDSEC;
END-ISO-10303-21;
