21HTranslator GID - IGES                                                S      1
1H,,1H;,3HGiD,51HC:/Documents and Settings/colignon/Desktop/bbbb.igs,   G      1
3HGiD,5H8.0.6,32,38,6,308,15,,1.,2,2HMM,10,10.,13H070309.174423,1.,2.,, G      2
65HCIMNE - International Center for Numerical Methods in Engineering,11,G      3
0,;                                                                     G      4
     314       1       0       0       0       0       0       000000200D      1
     314       0       1       1       0                   COLOR       1D      2
     406       2       0       0       1       0       0       000000300D      3
     406       0      -1       1       3                LEVELDEF       1D      4
     502       3       0       0       0       0       0       000010000D      5
     502       0       0       6       1                VERTLIST       0D      6
     110       9       0       0       1       0       0       000010000D      7
     110       0       0       1       0                  STLINE       1D      8
     110      10       0       0       1       0       0       000010000D      9
     110       0       0       1       0                  STLINE       2D     10
     110      11       0       0       1       0       0       000010000D     11
     110       0       0       1       0                  STLINE       3D     12
     110      12       0       0       1       0       0       000010000D     13
     110       0       0       1       0                  STLINE       4D     14
     110      13       0       0       1       0       0       000010000D     15
     110       0       0       1       0                  STLINE       5D     16
     110      14       0       0       1       0       0       000010000D     17
     110       0       0       1       0                  STLINE       6D     18
     110      15       0       0       1       0       0       000010000D     19
     110       0       0       1       0                  STLINE       7D     20
     110      16       0       0       1       0       0       000010000D     21
     110       0       0       1       0                  STLINE       8D     22
     110      17       0       0       1       0       0       000010000D     23
     110       0       0       1       0                  STLINE       9D     24
     110      18       0       0       1       0       0       000010000D     25
     110       0       0       1       0                  STLINE      10D     26
     110      19       0       0       1       0       0       000010000D     27
     110       0       0       1       0                  STLINE      11D     28
     110      20       0       0       1       0       0       000010000D     29
     110       0       0       1       0                  STLINE      12D     30
     110      21       0       0       1       0       0       000010000D     31
     110       0       0       1       0                  STLINE      17D     32
     110      22       0       0       1       0       0       000010000D     33
     110       0       0       1       0                  STLINE      18D     34
     110      23       0       0       1       0       0       000010000D     35
     110       0       0       1       0                  STLINE      19D     36
     110      24       0       0       1       0       0       000010000D     37
     110       0       0       1       0                  STLINE      20D     38
     110      25       0       0       1       0       0       000010000D     39
     110       0       0       1       0                  STLINE      21D     40
     110      26       0       0       1       0       0       000010000D     41
     110       0       0       1       0                  STLINE      22D     42
     110      27       0       0       1       0       0       000010000D     43
     110       0       0       1       0                  STLINE      23D     44
     110      28       0       0       1       0       0       000010000D     45
     110       0       0       1       0                  STLINE      24D     46
     504      29       0       0       0       0       0       000010001D     47
     504       0       0       4       1                EDGELIST       0D     48
     128      33       0       0       1       0       0       000010000D     49
     128       0       0       4       0                NURBSURF       1D     50
     128      37       0       0       1       0       0       000010000D     51
     128       0       0       4       0                NURBSURF       2D     52
     128      41       0       0       1       0       0       000010000D     53
     128       0       0       4       0                NURBSURF       3D     54
     128      45       0       0       1       0       0       000010000D     55
     128       0       0       4       0                NURBSURF       4D     56
     128      49       0       0       1       0       0       000010000D     57
     128       0       0       4       0                NURBSURF       5D     58
     128      53       0       0       1       0       0       000010000D     59
     128       0       0       4       0                NURBSURF       6D     60
     128      57       0       0       1       0       0       000010000D     61
     128       0       0       4       0                NURBSURF       8D     62
     128      61       0       0       1       0       0       000010000D     63
     128       0       0       4       0                NURBSURF       9D     64
     128      65       0       0       1       0       0       000010000D     65
     128       0       0       4       0                NURBSURF      10D     66
     128      69       0       0       1       0       0       000010000D     67
     128       0       0       4       0                NURBSURF      11D     68
     128      73       0       0       1       0       0       000010000D     69
     128       0       0       4       0                NURBSURF      12D     70
     508      77       0       0       0       0       0       000010000D     71
     508       0       0       1       1                    LOOP       1D     72
     508      78       0       0       0       0       0       000010000D     73
     508       0       0       1       1                    LOOP       2D     74
     508      79       0       0       0       0       0       000010000D     75
     508       0       0       1       1                    LOOP       3D     76
     508      80       0       0       0       0       0       000010000D     77
     508       0       0       1       1                    LOOP       4D     78
     508      81       0       0       0       0       0       000010000D     79
     508       0       0       1       1                    LOOP       5D     80
     508      82       0       0       0       0       0       000010000D     81
     508       0       0       1       1                    LOOP       6D     82
     508      83       0       0       0       0       0       000010000D     83
     508       0       0       1       1                    LOOP       8D     84
     508      84       0       0       0       0       0       000010000D     85
     508       0       0       1       1                    LOOP       9D     86
     508      85       0       0       0       0       0       000010000D     87
     508       0       0       1       1                    LOOP      10D     88
     508      86       0       0       0       0       0       000010000D     89
     508       0       0       1       1                    LOOP      11D     90
     508      87       0       0       0       0       0       000010000D     91
     508       0       0       1       1                    LOOP      12D     92
     510      88       0       0       1       0       0       000010000D     93
     510       0       0       1       1                    FACE       1D     94
     510      89       0       0       1       0       0       000010000D     95
     510       0       0       1       1                    FACE       2D     96
     510      90       0       0       1       0       0       000010000D     97
     510       0       0       1       1                    FACE       3D     98
     510      91       0       0       1       0       0       000010000D     99
     510       0       0       1       1                    FACE       4D    100
     510      92       0       0       1       0       0       000010000D    101
     510       0       0       1       1                    FACE       5D    102
     510      93       0       0       1       0       0       000010000D    103
     510       0       0       1       1                    FACE       6D    104
     510      94       0       0       1       0       0       000010000D    105
     510       0       0       1       1                    FACE       8D    106
     510      95       0       0       1       0       0       000010000D    107
     510       0       0       1       1                    FACE       9D    108
     510      96       0       0       1       0       0       000010000D    109
     510       0       0       1       1                    FACE      10D    110
     510      97       0       0       1       0       0       000010000D    111
     510       0       0       1       1                    FACE      11D    112
     510      98       0       0       1       0       0       000010000D    113
     510       0       0       1       1                    FACE      12D    114
     514      99       0       0       1       0       0       000010000D    115
     514       0       0       1       1                   SHELL       1D    116
     514     100       0       0       1       0       0       000010000D    117
     514       0       0       1       1                   SHELL       2D    118
     186     101       0       0       1       0       0       000000000D    119
     186       0       0       1       0                   SOLID       1D    120
     186     102       0       0       1       0       0       000000000D    121
     186       0       0       1       0                   SOLID       2D    122
314,0.,100.,0.,12HRGB(0,255,0);                                        1P      1
406,2,1,6HLayer0;                                                      3P      2
502,12,0.707106781,0.707106781,0.,-0.707106781,0.707106781,0.,         5P      3
-0.707106781,-0.707106781,0.,0.707106781,-0.707106781,0.,              5P      4
0.707106781,0.707106781,1.,-0.707106781,0.707106781,1.,                5P      5
-0.707106781,-0.707106781,1.,0.707106781,-0.707106781,1.,              5P      6
0.707106781,0.707106781,2.,-0.707106781,0.707106781,2.,                5P      7
-0.707106781,-0.707106781,2.,0.707106781,-0.707106781,2.;              5P      8
110,0.707106781,0.707106781,0.,-0.707106781,0.707106781,0.;            7P      9
110,-0.707106781,0.707106781,0.,-0.707106781,-0.707106781,0.;          9P     10
110,-0.707106781,-0.707106781,0.,0.707106781,-0.707106781,0.;         11P     11
110,0.707106781,-0.707106781,0.,0.707106781,0.707106781,0.;           13P     12
110,0.707106781,0.707106781,1.,-0.707106781,0.707106781,1.;           15P     13
110,-0.707106781,0.707106781,1.,-0.707106781,-0.707106781,1.;         17P     14
110,-0.707106781,-0.707106781,1.,0.707106781,-0.707106781,1.;         19P     15
110,0.707106781,-0.707106781,1.,0.707106781,0.707106781,1.;           21P     16
110,0.707106781,0.707106781,0.,0.707106781,0.707106781,1.;            23P     17
110,-0.707106781,0.707106781,0.,-0.707106781,0.707106781,1.;          25P     18
110,-0.707106781,-0.707106781,0.,-0.707106781,-0.707106781,1.;        27P     19
110,0.707106781,-0.707106781,0.,0.707106781,-0.707106781,1.;          29P     20
110,0.707106781,0.707106781,2.,-0.707106781,0.707106781,2.;           31P     21
110,-0.707106781,0.707106781,2.,-0.707106781,-0.707106781,2.;         33P     22
110,-0.707106781,-0.707106781,2.,0.707106781,-0.707106781,2.;         35P     23
110,0.707106781,-0.707106781,2.,0.707106781,0.707106781,2.;           37P     24
110,0.707106781,0.707106781,1.,0.707106781,0.707106781,2.;            39P     25
110,-0.707106781,0.707106781,1.,-0.707106781,0.707106781,2.;          41P     26
110,-0.707106781,-0.707106781,1.,-0.707106781,-0.707106781,2.;        43P     27
110,0.707106781,-0.707106781,1.,0.707106781,-0.707106781,2.;          45P     28
504,20,7,5,1,5,2,9,5,2,5,3,11,5,3,5,4,13,5,4,5,1,15,5,5,5,6,17,       47P     29
5,6,5,7,19,5,7,5,8,21,5,8,5,5,23,5,1,5,5,25,5,2,5,6,27,5,3,5,7,       47P     30
29,5,4,5,8,31,5,9,5,10,33,5,10,5,11,35,5,11,5,12,37,5,12,5,9,39,      47P     31
5,5,5,9,41,5,6,5,10,43,5,7,5,11,45,5,8,5,12;                          47P     32
128,1,1,1,1,0,0,1,0,0,0.,0.,1.,1.,0.,0.,1.,1.,1.,1.,1.,1.,            49P     33
0.707106781,0.707106781,0.,-0.707106781,0.707106781,0.,               49P     34
0.707106781,-0.707106781,0.,-0.707106781,-0.707106781,0.,0.,1.,       49P     35
0.,1.;                                                                49P     36
128,1,1,1,1,0,0,1,0,0,0.,0.,1.,1.,0.,0.,1.,1.,1.,1.,1.,1.,            51P     37
-0.707106781,0.707106781,0.,0.707106781,0.707106781,0.,               51P     38
-0.707106781,0.707106781,1.,0.707106781,0.707106781,1.,0.,1.,0.,      51P     39
1.;                                                                   51P     40
128,1,1,1,1,0,0,1,0,0,0.,0.,1.,1.,0.,0.,1.,1.,1.,1.,1.,1.,            53P     41
-0.707106781,-0.707106781,0.,-0.707106781,0.707106781,0.,             53P     42
-0.707106781,-0.707106781,1.,-0.707106781,0.707106781,1.,0.,1.,       53P     43
0.,1.;                                                                53P     44
128,1,1,1,1,0,0,1,0,0,0.,0.,1.,1.,0.,0.,1.,1.,1.,1.,1.,1.,            55P     45
0.707106781,-0.707106781,0.,-0.707106781,-0.707106781,0.,             55P     46
0.707106781,-0.707106781,1.,-0.707106781,-0.707106781,1.,0.,1.,       55P     47
0.,1.;                                                                55P     48
128,1,1,1,1,0,0,1,0,0,0.,0.,1.,1.,0.,0.,1.,1.,1.,1.,1.,1.,            57P     49
0.707106781,0.707106781,0.,0.707106781,-0.707106781,0.,               57P     50
0.707106781,0.707106781,1.,0.707106781,-0.707106781,1.,0.,1.,0.,      57P     51
1.;                                                                   57P     52
128,1,1,1,1,0,0,1,0,0,0.,0.,1.,1.,0.,0.,1.,1.,1.,1.,1.,1.,            59P     53
-0.707106781,0.707106781,1.,0.707106781,0.707106781,1.,               59P     54
-0.707106781,-0.707106781,1.,0.707106781,-0.707106781,1.,0.,1.,       59P     55
0.,1.;                                                                59P     56
128,1,1,1,1,0,0,1,0,0,0.,0.,1.,1.,0.,0.,1.,1.,1.,1.,1.,1.,            61P     57
-0.707106781,0.707106781,1.,0.707106781,0.707106781,1.,               61P     58
-0.707106781,0.707106781,2.,0.707106781,0.707106781,2.,0.,1.,0.,      61P     59
1.;                                                                   61P     60
128,1,1,1,1,0,0,1,0,0,0.,0.,1.,1.,0.,0.,1.,1.,1.,1.,1.,1.,            63P     61
-0.707106781,-0.707106781,1.,-0.707106781,0.707106781,1.,             63P     62
-0.707106781,-0.707106781,2.,-0.707106781,0.707106781,2.,0.,1.,       63P     63
0.,1.;                                                                63P     64
128,1,1,1,1,0,0,1,0,0,0.,0.,1.,1.,0.,0.,1.,1.,1.,1.,1.,1.,            65P     65
0.707106781,-0.707106781,1.,-0.707106781,-0.707106781,1.,             65P     66
0.707106781,-0.707106781,2.,-0.707106781,-0.707106781,2.,0.,1.,       65P     67
0.,1.;                                                                65P     68
128,1,1,1,1,0,0,1,0,0,0.,0.,1.,1.,0.,0.,1.,1.,1.,1.,1.,1.,            67P     69
0.707106781,0.707106781,1.,0.707106781,-0.707106781,1.,               67P     70
0.707106781,0.707106781,2.,0.707106781,-0.707106781,2.,0.,1.,0.,      67P     71
1.;                                                                   67P     72
128,1,1,1,1,0,0,1,0,0,0.,0.,1.,1.,0.,0.,1.,1.,1.,1.,1.,1.,            69P     73
-0.707106781,0.707106781,2.,0.707106781,0.707106781,2.,               69P     74
-0.707106781,-0.707106781,2.,0.707106781,-0.707106781,2.,0.,1.,       69P     75
0.,1.;                                                                69P     76
508,4,0,47,1,1,0,0,47,2,1,0,0,47,3,1,0,0,47,4,1,0;                    71P     77
508,4,0,47,1,0,0,0,47,9,1,0,0,47,5,1,0,0,47,10,0,0;                   73P     78
508,4,0,47,2,0,0,0,47,10,1,0,0,47,6,1,0,0,47,11,0,0;                  75P     79
508,4,0,47,3,0,0,0,47,11,1,0,0,47,7,1,0,0,47,12,0,0;                  77P     80
508,4,0,47,4,0,0,0,47,12,1,0,0,47,8,1,0,0,47,9,0,0;                   79P     81
508,4,0,47,5,0,0,0,47,8,0,0,0,47,7,0,0,0,47,6,0,0;                    81P     82
508,4,0,47,5,0,0,0,47,17,1,0,0,47,13,1,0,0,47,18,0,0;                 83P     83
508,4,0,47,6,0,0,0,47,18,1,0,0,47,14,1,0,0,47,19,0,0;                 85P     84
508,4,0,47,7,0,0,0,47,19,1,0,0,47,15,1,0,0,47,20,0,0;                 87P     85
508,4,0,47,8,0,0,0,47,20,1,0,0,47,16,1,0,0,47,17,0,0;                 89P     86
508,4,0,47,13,0,0,0,47,16,0,0,0,47,15,0,0,0,47,14,0,0;                91P     87
510,49,1,1,71;                                                        93P     88
510,51,1,1,73;                                                        95P     89
510,53,1,1,75;                                                        97P     90
510,55,1,1,77;                                                        99P     91
510,57,1,1,79;                                                       101P     92
510,59,1,1,81;                                                       103P     93
510,61,1,1,83;                                                       105P     94
510,63,1,1,85;                                                       107P     95
510,65,1,1,87;                                                       109P     96
510,67,1,1,89;                                                       111P     97
510,69,1,1,91;                                                       113P     98
514,6,93,1,95,1,97,1,99,1,101,1,103,1;                               115P     99
514,6,103,0,105,1,107,1,109,1,111,1,113,1;                           117P    100
186,115,1,0;                                                         119P    101
186,117,1,0;                                                         121P    102
S      1G      4D    122P    102                                        T      1
